Blink 182

Blink 182
Dumpweed Ver 3 (Guitar tab)

OK, here's the deal. Your guys' tabs for Blink's awesome album are
way off. So, I decided to help you guys out. I started off with their
classic starter "Dumpweed." I'm 100% sure this is correct. Try it
yourself. If you are not 100% satisfied e-mail me and I'll tell you
what you're doing wrong because this is right! One minor note: some
parts may be altared a bit. I took out some points from the live
version of the song like adding a note in the intro.
E-mail- Blnk182ModenaF50@aol.com post the subject as "Blink182-Dumpweed"

ENEMA OF THE STATE
Dumpweed-A song about Tom's need for a woman
Intro _____ _____ _____ _____
e|---------------------------------|---------------------------------|
b|---------------------------------|---------------------------------|
g|---------------------------------|---------------------------------|
d|---6-6-7-6----------6-6-7-6------|-7-6-6-7-6---------7-6-6-7-6-9---|
a|-6-----------0-9-0-6---------0-9-|-0-----------0-9-0-0-----------9-|
E|----------7----------------7-----|-----------7------------------7--|

Other Intro- Repeat Once
___ ___ ___ ___ ___ ___ ___ ___
e|-4-0---0-4-0---0-2-0---0-2-0---0-4-0---0-4-0---0-5-0---0-5-0---0---|
b|-----0-------0-------0-------0-------0-------0-------0-------0-----|

VERSE- Same throughout the whole song...repeat once for first verse
and don't repeat at all for second verse...also played before bridge
P.M. always means Palm Mute
P.M.---------------------------------------------|
d|----------------4-4-4-4-4------------------4-4-4-4-4-|
a|-2--2-2-2-2-2-2-2-2-2-2-2--2-2-2-2-2-2-2-2-2-2-2-2-2-|
E|-0--0-0-0-0-0-0------------0-0-0-0-0-0-0-0-----------|

P.M.---------------------------------------------|
d|-2--2-2-2-2-2-2-4-4-4-4-4--2-2-2-2-2-2-2-2-4-4-4-4-4-|
a|-0--0-0-0-0-0-0-2-2-2-2-2--0-0-0-0-0-0-0-0-2-2-2-2-2-|
E|-----------------------------------------------------|

Back to first intro then...
CHORUS...which is the same as the verse chords except strumming is
slightly altared at certain points like the end of the chorus and add
the third note to complete the power chord. After chorus, song goes
to 2nd intro with high e and b. Then verse,then chorus x2, then verse
(bridge intro)2ce and then this...

BRIDGE-This is mostly all palm muted on the CD but Tom doesn't palm it
live...
e|-4-0---0---2-0---0---4-0---0---5-0---0--| Repeat twice then...
b|-----0---0-----0---0-----0---0-----0---0|

Add this at the end of the first time through the bridge before
repeating it 2ce to end the song
e|-0-2| (no plam mute)
That's about it. If you don't get some of it e-mail me and I'll
explain. Don't forget to make the subject "Blink182-Dumpweed" or
something close to that. If you want ALMOST ANY Blink182 song

OptimusPrime

Toegevoegd door OptimusPrime op zo 01 dec, 2002 8:35 am

Auteur: ?
Componist: ?
Uitgever: ?
Taal: Engels

Reacties

CommonCrawl [Bot]

Volg Muzikum