Blink 182

Blink 182
Please Take Me Home Ver 2 (Guitar tab)

Please Take Me Home
Blink 182
By Andrew
Chocolatestarfish316@triad.rr.com

Intro/ Verse
----------------------------------------------------
----------------------------------------------------
-8-8-8-8-8-8-8-8-8-4-4-4-4-4-4-4--------
-8-8-8-8-8-8-8-8-8-4-4-4-4-4-4-4--------
-6-6-6-6-6-6-6-6-6-2-2-2-2-2-2-2--------
----------------------------------------------------

Pre-Chorus
------------------------------------------------------------------------------------------------------------------
------------------------------------------------------------------------------------------------------------------
4--------------------------4-------------------4-------------------4---------------4-4-4-4-4-4-4-4-4-4----
4--------------------------4-------------------4-------------------4---------------4-4-4-4-4-4-4-4-4-4---
2--------------------------2-------------------2-------------------2---------------2-2-2-2-2-2-2-2-1-1--
------------------------------------------------------------------------------------------------------------------
she's unstoppable, Unpredictable, I'm so jaded, Calculated, Wrong....

Chorus
----------------------------------------------------------
----------------------------------------------------------
4-4-4-4-4-4-4-4-4-4-4-4-4-4-4-4-4--4-4-4-4
4-4-4-4-4-4-4-4-4-4-4-4-4-4-4-4-4--4-4-4-4
2-2-2-2-2-2-2-1-1-1-1-1--------------------------
------------------------4-4-4-4-4--2-2-2-2
Please take me home, to late it's gone

-----------------------------------------------------------------------------
-----------------------------------------------------------------------------
4-4-4-4-4-4-4-4-4-4-4-4-4-4-4-4-4------------------4-4-4-4---
4-4-4-4-4-4-4-4-4-4-4-4-4-4-4-4-4------------------4-4-4-4---
2-2-2-2-2-2-2-1-1-1-1-1---------------------------------------------
------------------------4-4-4-4-4------------------2-2-2-2---
I know your sad This is the best time we ever had

Repeat Verse, Repeat Pre Chorus and Chorus

interlude
----------------------
----------------------
----------------------
-----1-1-2-2-1-1--
2-2------------------
----------------------

OptimusPrime

Toegevoegd door OptimusPrime op zo 01 dec, 2002 8:35 am

Auteur: ?
Componist: ?
Uitgever: ?
Taal: Engels

Reacties

CommonCrawl [Bot]

Volg Muzikum