Blink 182

Blink 182
All The Small Things Live Solo (Guitar tab)

Artist: Blink 182
Song: All the Small Things (live solo)
Date: 11/7/00
Creator:Joey Roper (cheeseball911@hotmail.com)

Hey this is the solo Tom plays at all the live concerts. Sometimes he variates it, but this is the basic one.


Notes: >Regular Tuning
>Cuff All*


Play 3 times:
|---------------------------------------------------------------|
|-----------------------------------------------0---------------|
|-----5---------5----------5----------5-------------------------|
|----------5---------5----------5----------5---------5----------|
|---------------------------------------------------------------|
|---------------------------------------------------------------|


|---------------------------------------------------------------|
|----0---------3---------3--------------------------------------|
|---------------------------------------------------------------|
|---------5---------5---------5---------------------------------|
|---------------------------------------------------------------|
|---------------------------------------------------------------|


Then play....

*play these open notes non-cuffed
|---------------------------------------------------------------|
|--------------------------------------------0-0-0-0-0-0-0-0----|
|----5---------5---------5---------5----------------------------|
|---------5---------5---------5---------5-----------------------|
|---------------------------------------------------------------|
|---------------------------------------------------------------|


|---------------------------------------------------------------|
|---------------------------------------------------------------|
|----5---------5---------5---------5---------5---------5--------|
|---------5---------5---------5---------5---------5---------5---|
|---------------------------------------------------------------|
|---------------------------------------------------------------|


|---------------------------------------------------------------|
|---------------------------------------------------------------|
|----5--------5---------5--------5---------5---------5----------|
|---------5--------5--------5---------5---------5---------5-----|
|---------------------------------------------------------------|
|---------------------------------------------------------------|


|---------------------------------------------------------------|
|----3---------3---------3---------3-------then you bust out----|
|------------------------------------------in the chorus--------|
|---------5---------5---------5---------5-----------------------|
|---------------------------------------------------------------|
|---------------------------------------------------------------|




I hope you enjoy this tab. I worked hard to make it and I think it sounds right.

OptimusPrime

Toegevoegd door OptimusPrime op zo 01 dec, 2002 8:35 am

Auteur: ?
Componist: ?
Uitgever: ?
Taal: Engels

Reacties

CommonCrawl [Bot]

Volg Muzikum