Blink 182

Blink 182
All The Small Things Live Ver 2 (Guitar tab)

@@@@@@@@@@@@@@@@@@@@@@@@@@@@@@
Artist: Blink 182
Album: The Mark, Tom and Travis show (The enema strikes back)
Song: All the small things
@@@@@@@@@@@@@@@@@@@@@@@@@@@@@@

Damn this song is cool, I've heard it a million times,
however I still like it.
It's very easy to play, just listen to the cd in order to figure out the rhytm.
Let the little people fly.
And that's all I have to say about that........

/Daniel - phantom@libertysurf.se


: = let ring
pm = palm mute

Intro: 2x * = 8 times () = only second time
E|---------------------------------------|
B|---------------------------------------|
G|-------5*--10*--------pmpmpmpm---------|
D|--5-3--5*--10*--5*--3--3-3-3-3--(5-3)--|
A|--5-3--3*---8*--5*--3--3-3-3-3--(5-3)--|
E|--3-1-----------3*--1--1-1-1-1--(3-1)--|


Verse: 4x * = 8 times
E|---------------------|
B|---------------------|
G|--5*-pm-pm-pm--5-5:--|
D|--5*-5*-3*-5*--5-5:--|
A|--3*-5*-3*-5*--3-3:--|
E|--pm-3*-1*-3*--------|


Chorus: 2x
E|---------------------------------------------|
B|---------------------------------------------|
G|--5-5-5-5-5-5-5-5-5-5------------------------|
D|--5-5-5-5-5-5-5-5-5-5--5-5-5-5-5--3-3-3-3-3--|
A|--3-3-3-3-3-3-3-3-3-3--5-5-5-5-5--3-3-3-3-3--|
E|-----------------------3-3-3-3-3--1-1-1-1-1--|


Then play this: 2x * = 8 times
E|-------------------------------------------------|
B|-------------------------------------------------|
G|--5*--10-10-10-10--9-9-9-9--7*----pmpmpmpm-------|
D|--5*--10-10-10-10--9-9-9-9--7*--3--3-3-3-3--5-3--|
A|--3*---8--8--8--8--7-7-7-7--5*--3--3-3-3-3--5-3--|
E|--------------------------------1--1-1-1-1--3-1--|


Then play the verse twice, and then the chorus,
to continue directly with the solo


Solo: Chords only the first time and � = clean () = play 6 times
E|----------------------------------------------------|
B|----------------------------------------------------|
G|--5:-----------(5---5---5---5----4---4----7---7--)--|
D|--5:--3�--5�---(--5---5---5---5----5---5----5---5)--|
A|--3:--3�--5�----------------------------------------|
E|------1�--3�----------------------------------------|


Then play this: 2x ** = 16 times * = 8 times
E|---------------|
B|---------------|
G|--5**----------|
D|--5**--5*--3*--|
A|--3**--5*--3*--|
E|-------3*--1*--|


End: ** = 16 times * = 8 times
E|--------------------------------------------|
B|--------------------------------------------|
G|--5**-------------5**-------------------5:--|
D|--5**--5*---3--3--5**--5*---3--3--3--3--5:--|
A|--3**--5*---3--3--3**--5*---3--3--3--3--3:--|

OptimusPrime

Toegevoegd door OptimusPrime op zo 01 dec, 2002 8:35 am

Auteur: ?
Componist: ?
Uitgever: ?
Taal: Engels

Reacties

CommonCrawl [Bot]

Volg Muzikum