Blink 182

Blink 182
Man Overboard Ver 3 (Guitar tab)

I can't believe some of the things you guys come up with...all you
have to do to find out a song is watch the video and sound it out. I
knew this song (Man Overboard) before it even came out...

Intro: Bass
Then Tom joins in...
e|----------------------------
b|---------------------5------
g|---------------------5------
d|-5---------7---------3------
a|-5---------7----------------
E|-3---------5----------------

Interlude
e|----------------------------
b|----------------------------
g|----------------------------
d|-----2-3-2-----0-2-3-2-0---- x2 or 4 whatever
a|---0------------------------
E|-3--------------------------
The second time Tom plays that, he uses open low E instead of E...if
you listen closely you will hear it.

Then...
e|--------------------------
b|--------------------------
g|-0-0----------------------
d|-----0-0-2------0-2-4-2-0- x2 or 4 whatever
a|--------------------------
E|--------------------------

The chorus is the same as the opening and the verse is Palm muted of
the opening chords...thats about it REALLY easy song one more

OptimusPrime

Toegevoegd door OptimusPrime op zo 01 dec, 2002 8:35 am

Auteur: ?
Componist: ?
Uitgever: ?
Taal: Engels

Reacties

CommonCrawl [Bot]

Volg Muzikum