Blink 182

Blink 182
Girl Next Door Ver 2 (Guitar tab)

Song-Girl Next Door
Artist-blink182



Intro
strum each chourd up and down real fast 8x

e---------------
b---------------
g--------4-----5
d---5----4--2--5
a---5----2--2--3
e---3-------0---
2x

a--------2-3-2-0------5555555555
e---5-3-----------5-3

OptimusPrime

Toegevoegd door OptimusPrime op zo 01 dec, 2002 8:35 am

Auteur: ?
Componist: ?
Uitgever: ?
Taal: Engels

Reacties

CommonCrawl [Bot]

Volg Muzikum