Blink 182

Blink 182
Stay Together For The Kids Ver 5 (Guitar tab)

Author/Artist: Blink 182
Title: Stay Together For The Kids
Album: Take off your pants and jacket
Transcribed by: Colin Kemege
Email: socksandspoons@hotmail.com

I'm not sure about the Bridge, it sounds pretty accurate but don't rate me down because you think its off, instead email me corrections. Thanks!

Main Riff
-|----------------------------------------------------------------------------
-|----------------------------------------------------------------------------
-|----------------------------------------------------------------------------
-|---0----7-0-4-0----0----7-0-4-0-----0-----4-0-5-0----0----4-5-4-2-0---------
-|-5---5----------4----4------------2---2------------0---0--------------------
-|---------------------------------------------------------------------------- x2

Verse
-|----------------------------------------------------------------------------
-|----------------------------------------------------------------------------
-|----7----7----7----7-----7----7----7----7-----------------------------------
-|----7----7----7----7-----7----7----7----7-----------------------------------
-|55----55---55---55----------------------------------------------------------
-|----------------------77---77---77---77-------------------------------------


-|----------------------------------------------------------------------------
-|------------------------5----5----------------------------------------------
-|----7----7----7----7----7----7----7----7------------------------------------
-|----7----7----7----7--------------7----7------------------------------------
-|----------------------------------------------------------------------------
-|-55---55---55---55---55---55---55---55-------------------------------------- x2

Chorus
-|----------------------------------------------------------------------------
-|----------------------------------------------------------------------------
-|-7777777777777777----6666666666666666---------------------------------------
-|-7777777777777777----6666666666666666---------------------------------------
-|-5555555555555555----4444444444444444---------------------------------------
-|---------------------------------------------------------------------------- x4
4th time end on:
-|---|------------------------------------------------------------------------
-|---|------------------------------------------------------------------------
-|-7-|------------------------------------------------------------------------
-|-7-|------------------------------------------------------------------------
-|-5-|------------------------------------------------------------------------
-|---|------------------------------------------------------------------------



Bridge * = distortion
-|----------------------------------------------------------------------------
-|-------7------------9--7----******------------------------------------------
-|7-7-9--7--7--9--7-7-9--7--7-999999------------------------------------------
-|7-7-9--7--7--9--7-7-9--7--7-999999------------------------------------------
-|----------------------------------------------------------------------------
-|----------------------------------------------------------------------------

Order:
Main Riff
Verse
Chorus
Main Riff
Verse
Chorus
Bridge

OptimusPrime

Toegevoegd door OptimusPrime op zo 01 dec, 2002 8:35 am

Auteur: ?
Componist: ?
Uitgever: ?
Taal: Engels

Reacties

CommonCrawl [Bot]

Volg Muzikum