Eminem

Eminem
Superman Ver 2 (Guitar tab)

This is elemeno p, the smooth pimpin norwegian,
baddest motherfuckin rap artist in the region.

this is my first tab attempt, but it's perfect.
play along to the cd and alternate parts 1 & 2.
it's pretty tripped out but very easy.

comments or questions? hit me on the email
{juliaspleezer@hotmail.com}
part one
e------------------------------------0-------------------------------
a-0--------0--2--3---------2------------2----------------------------
d---2---------------2---------0------------2-------------------------
g-----2----------------0---------0-----------------------------------
b--------------------------------------------------------------------
e--------------------------------------------------------------------

e--------------------------------------------------------------------
a-0------------------------------------------------------------------
d---2--------10------------9-----------------------------------------
g-----2----------9------------8--------------------------------------
b--------------------8-----------7-----12----------------------------
e--------------------------------------------------------------------

part two

e--------------------------------------------------------------------
a--------------------------------------------------------------------
d--------------------------------------------------------------------
g--------------------------------------------------------------------
b--------------------------------------------------------------------

OptimusPrime

Toegevoegd door OptimusPrime op zo 01 dec, 2002 9:43 am

Auteur: ?
Componist: ?
Uitgever: ?
Taal: Engels

Reacties

CommonCrawl [Bot]

Volg Muzikum