Eminem

Eminem
Kim Ver 2 (Guitar tab)

I was just messing around in class when I figured this out.
I�m not sure if it�s right. I f you figure anything else out mail me!!!! ^_^ ^_^ ^_^

Chorus







E-----------------------------------------------------------------------------------------
B------------------------------------------------------------------------------------------
G------------------------------------------------------------------------------------------
D----3---2---3----2---0---------3-----2-----2----0----------------2----0----2---0---
A---------------------------3------------------------------3----2-------------------------
E------------------------------------------------------------------------------------------


E------------------------------------------------------------------------------------------
B------------------------------------------------------------------------------------------
G------------------------------------------------------------------------------------------
D----------------0------------------------------------------------------------------------
A----3----2-----------3s2---0-----------------------------------------------------------
E------------------------------------------------------------------------------------------

OptimusPrime

Toegevoegd door OptimusPrime op zo 01 dec, 2002 9:43 am

Auteur: ?
Componist: ?
Uitgever: ?
Taal: Engels

Reacties

CommonCrawl [Bot]

Volg Muzikum