Eminem

Eminem
Stan Ver 5 (Guitar tab)

Enimen - Stan
Capo on the 4th fret

Riff 1
e----------------------------------------------2-------------------------------

B---------0----------------3----------------------3----------0--------------

G------------0-----------------0---------2--------------------- -------0----

D-----2---------------2---------------0--------------------------------------

A-----------------3-------------------------------------------------2---------

E--0------------------------------------------------------3-------------------

Riff 2
e-----------------------------------------

B---------0----------------3----------

G------------0-----------------0------

D-----2---------------2---------------

A-----------------3--------------------

E--0------------------------------------

Riff 1 x3 then riff 2 x2
Repeat this all the way through

OptimusPrime

Toegevoegd door OptimusPrime op zo 01 dec, 2002 9:43 am

Auteur: ?
Componist: ?
Uitgever: ?
Taal: Engels

Reacties

CommonCrawl [Bot]

Volg Muzikum