From The Marshall Mathers LP O" /> From The Marshall Mathers LP O" /> From The Marshall Mathers LP O"> Eminem - Stan Ver 3 Songtekst
 

Eminem

Eminem
Stan Ver 3 (Guitar tab)

Date: Sun, 24 Dec 2000 08:04:28 -0500
From: "Tom Carr"
Subject: e/eminem/stan.crd

Eminem - Stan (Feat. Dido)
>From The Marshall Mathers LP

Originally by ll@priest.com
Bass Riff, Alternate chords and hopefully corrections added by Tom C

Bass Riff:
G|----------------------------------------
D|--------2----2-4------4-----------------
A|------------------------2-1-------------
E|--4---4---------------------------------

G|----------------------------------------
D|--------2----2-4------4-----------------
A|------------------------2-1-------------
E|--4---4---------------------------------

G|----------------------------------------
D|--------2----2-4------4-----------------
A|------------------------2-1-------------
E|--4---4---------------------------------

G|----------------------------------------
D|--------2----2-3----3-2-----------------
A|----------------------------------------
E|--4---4---------------------------------

Chords for guitar:
(Tune down 1/2 a step)


| Am | F | G | C C/B | x3

| Am | F | D/F# | F |

The same right the way through

If you can't be bothered to tune down, stick a capo on the 4th fret and play

| Em | C | D | G G/F# | x3

| Em | C | A/C# | C |

instead

Probably still room for improvement, any corrections, send to
T_I_W_C@Hotmail.com please.

OptimusPrime

Toegevoegd door OptimusPrime op zo 01 dec, 2002 9:43 am

Auteur: ?
Componist: ?
Uitgever: ?
Taal: Engels

Reacties

CommonCrawl [Bot]

Volg Muzikum