Eminem

Eminem
Stan Ver 2 (Guitar tab)

Artist: Eminem - Stan
Album: The Marshal Mathers


Tabbed By: Jon Claire(Kelleher@armageddon.fsbusiness.co.uk)
and Staffan (the little one) +Anders Jurisoo. anders_jurisoo@2hotmail.com
Im (Anders) almost shure this is correct. not 100% timing, but anyway,
good luck and enyoy!

CHORUS:

Am F G C C* Am
Teas gone cold im wonderin why i got out of bed at all.
0----0----0----1-----------0---------0------------------------------
------------------3---1------3--0-1---------0---1----------------
---------------------------------------------------2-----------
---------------------------------------------------------------
--------------------------------------------------------------
--------------------------------------------------------------
Am... F G C C* Am
the morning rain clouds up my window and i cant see at all.

Am F G C C* Am
even if i could it'd all be gray. But yer picture on my wall.

Am F G C C* Am
It reminds me that its not so bad, its not so bad...


The C* Chord is:

E|--------| Strum all the strings from E to e...
A|--2-----|
D|--------|
G|--------|
B|-----0--|
e|--------|

VERSES:
G----------------------------------
D----------------------------------
A-----7--7-9-9---------------------
E-4-4---------7-6------------------

OptimusPrime

Toegevoegd door OptimusPrime op zo 01 dec, 2002 9:43 am

Auteur: ?
Componist: ?
Uitgever: ?
Taal: Engels

Reacties

CommonCrawl [Bot]

Volg Muzikum