Eminem

Eminem
Guilty Conscience Ver 2 (Guitar tab)

Guilty Conscience - Eminem feat. Dr Dre
Album: Slim Shady LP
Tabbed 2nd of Aug 1999 by Ducky (mailto: hehehe@quackquack.com)

Yet another song that's not really a guitarsong, but can be cool to know hehehe :))
And it seemed easy to tab... so I did :P~
...and yeah...sorry no lyrics...


(Guitar) Am Am Am Am
E||---------5----------5------|--------5-----------5-------|
B||---------5----------5------|--------5-----------5-------|
G||*--------5----------5------|--------5-----------5-------|
D||*--------7----------7------|--------7-----------7-------|
A||---------7----------7------|--------7-----------7-------|
E||---------5----------5------|--------5-----------5-------|
|| | |
|| 1 * 2 * 3 * 4 * | 1 * 2 * 3 * 4 * |
B||(Bass) | |
G||---------------------------|----------------------------|
D||*--7--7-----5--7--7-----5--|--7--7-----5--7--5----------|
A||*--------------------------|--------------------8--7----|
E||---------------------------|----------------------------|


(Guitar)Cm Cm Cm Cm
|--------8-----------8-----|--------8-----------8------||
|--------8-----------8-----|--------8-----------8------||
|--------8-----------8-----|--------8-----------8-----*||
|--------10----------10----|--------10----------10----*||
|--------10----------10----|--------10----------10-----||
|--------8-----------8-----|--------8-----------8------||
| | ||
| 1 * 2 * 3 * 4 * | 1 * 2 * 3 * 4 * ||
|(Bass) | ||
|--------------------------|---------------------------||
|--------------------------|-----------------3--4--5--*||
|--6--6-----3--6--6-----3--|--6--6-----3--6-----------*||
|--------------------------|---------------------------||

OptimusPrime

Toegevoegd door OptimusPrime op zo 01 dec, 2002 9:42 am

Auteur: ?
Componist: ?
Uitgever: ?
Taal: Engels

Reacties

CommonCrawl [Bot]

Volg Muzikum