Eminem

Eminem
Halies Song Ver 2 (Guitar tab)

sup.

part1

e----------------------------------------------------------------
b----------------------------------------------------------------
g----2----4-5--7--5--4---7--5--4-4--5------------------------------
d---2-------------------------------------------------------------
a----------------------------------------------------------------
e----------------------------------------------------------------
part2
e----------------------------------------------------------------
b----------------------------------------------------------------
g---9----7--5---7---5----7---4------------------------------------
d----------------------------------------------------------------
a----------------------------------------------------------------
e----------------------------------------------------------------

e----------------------------------------------------------------
b----------------------------------------------------------------
g----2----4-5--7--5--4---7--5--4-4--5------------------------------
d---2-------------------------------------------------------------
a----------------------------------------------------------------
e----------------------------------------------------------------

e----------------------------------------------------------------
b----------------------------------------------------------------
g---9----7--5---7---5----7---9------13--14-------------------------
d----------------------------------------------------------------
a----------------------------------------------------------------
e----------------------------------------------------------------

the ending notes (13,14) are not played. they are the notes em sings with
his voice- added for fun, optional.

OptimusPrime

Toegevoegd door OptimusPrime op zo 01 dec, 2002 9:42 am

Auteur: ?
Componist: ?
Uitgever: ?
Taal: Engels

Reacties

CommonCrawl [Bot]

Volg Muzikum