Eminem

Eminem
Without Me Ver 5 (Guitar tab)

Title: Without Me
Artist: Eminem
Album: The Eminem Show
This song is pretty cool,and not too hard to play.

�Trailer park girls� part
|-----------------------------------------------------------------------------------------
|-----------------------------------------------------------------------------------------
|-----------------------------------------------------------------------------------------
|----------------------------------5--------5---------5--------5---------5-------5--------
|-----------5---6---5---------------------------------------------------------------------
|----------------------------3--------3---------3---------3--------3-------3--------3-----

Repeat as needed� (also played during the verse)

Other part during the verse is� (Just change it a little here and there for the chorus)
|----------------------------|---------------------------|-------------------------------|------------------
|----------------------------|---------------------------|-------------------------------|------------------
|----------------------------|---------------------------|-------------------------------|------------------
|---------8--7--5------------|------------------3--------|-------------------------------|------------------
|----5------------------5----|----5---3---5--------5-----|----5-----3-----5-----3---1|---1---0--------------
|----------------------------|---------------------------|-------------------------------|-----------1----3-

OptimusPrime

Toegevoegd door OptimusPrime op zo 01 dec, 2002 9:42 am

Auteur: ?
Componist: ?
Uitgever: ?
Taal: Engels

Reacties

CommonCrawl [Bot]

Volg Muzikum