Eminem

Eminem
Cleanin Out My Closet (Guitar tab)

--------------
--------------
--------------
-------2--2---
-0-2-3-----3-2 Repeat 2x
--------------

-----------------------------------------
----------------------2-4-5-0-2b---------
-----------------------------------------
-----0-2-3--2-0--------------------------
-0-3------------3------------------------
-----------------------------------------

I don't have the solo parts yet, but i'm working on it.

OptimusPrime

Toegevoegd door OptimusPrime op zo 01 dec, 2002 9:42 am

Auteur: ?
Componist: ?
Uitgever: ?
Taal: Engels

Reacties

CommonCrawl [Bot]

Volg Muzikum