Eminem

Eminem
Drug Ballad (Bass tab)

Song: Drug Ballad
Band: Eminem
Album: Marshal Mathers
tabbed by: Nadja (fantomas@btinternet.co.uk)

ok, here's another easy one, but it's a cool song.

intro/chorus

G:-----------------------------------------9-8-9------------------
D:---------------------7-10-9------7-10-9-------------------------
A:-7-10-9-----7-10-9------------7---------------------------------
E:---------7------------------------------------------------------

verse

G:-----------------------------------------------------------------
D:-----------------------------------------------------------------
A:-7-7-7-7-7-7-7-7-6-6-6-6-6-6-6-6-5-5-5-5-5-5-5-5-4-4-4-4-4-4-4-4-
E:-----------------------------------------------------------------


enjoy everyone.

OptimusPrime

Toegevoegd door OptimusPrime op zo 01 dec, 2002 9:42 am

Auteur: ?
Componist: ?
Uitgever: ?
Taal: Engels

Reacties

CommonCrawl [Bot]

Volg Muzikum