Eminem

Eminem
Marshall Mathers Ver 2 (Guitar tab)

oyin@mail.com

eminems cool

Em Am B7
------------------------------------------
-------------------------------------------
---------------------1-------------4-----
--------0----------2-------------2---------
------2----------2-------------4-----------
----2----------0-------------2-------------
--0--------------------------------------


end solo

--------------7---5---5----------------
-----5-7-5---------------8-7--5--------
--/4-------8---------------------------
---------------------------------------
---------------------------------------
----------------------------------------

--------------7---5--5-7-8-7------------
-----5-7-5--------------------8-7--5----
--/4-------8----------------------------
---------------------------------------
---------------------------------------
----------------------------------------

im sorry that im not too sure about the last solo.
i dont have my guitar on me kuz im in college

OptimusPrime

Toegevoegd door OptimusPrime op zo 01 dec, 2002 9:42 am

Auteur: ?
Componist: ?
Uitgever: ?
Taal: Portugees

Reacties

CommonCrawl [Bot]

Volg Muzikum