Deep Purple

Deep Purple
Hush (Bass tab)

INTRO
G--------|------|------|------|----------|
D--------|------|------|------|----------|
A---1--1-|------|------|------|------1-2-|
E--------|-4--4-|-1--1-|-3--3-|----3-----|


VERSE
G-----------------------|---------------------|
D-----------------------|---------------------|
A---3-3-3-1-3-3-3-3-3-1-|-3-3-3-1-3-3-3-3-3---|
E-----------------------|-------------------3-|


[NA NA]
G-----------------------|---------------------|
D-------------1-1-1-1-1-|-------0-1-----------|
A---------3-4-----------|-1-1-1-------------1-|
E---4-4-4---------------|-----------1-1-1-1---|


[HUSH HUSH]
G-----------------------|---------------------|
D-----------------------|---------------------|
A---3-3-3-1-3-3-3-3-3-1-|-----------1-1-1-1---|
E-----------------------|-1-1-1-1-1---------3-|
Deep Purple - Hush


INTERLUDE
G-------|-----|-----|-----|
D-------|-----|-----|-----|
A---3-3-|-3-3-|-3-3-|-3-3-|
E-------|-----|-----|-----|


END
G-----------------------------------------------------------------|-----|
D-----------------0-1-1-1-1-1-1-1---------------------------------|-----|
A---------------------------------0-1-1-1-1-1-1-1-----------------|---3-|
E---4-4-4-4-4-4-4---------------------------------4-1-1-1-1-1-1-1-|-----|

Endless

Toegevoegd door Endless op vr 06 jan, 2006 10:54 pm

Auteur: Joe South, Blackmore / Lord / Simper / Paice
Componist: Joe South
Uitgever: Parlophone Records Ltd.
Uitgegeven in: 2000
Taal: Engels

Reacties

CommonCrawl [Bot]

Volg Muzikum