Deep Purple

Deep Purple
Smoke On The Water Ver 10 (Guitar tab)

e------------------------ REPEAT
b------------------------
g------------------------
d------------------------
a--2-4--2-5-4--2-4-------
e-4----4------4----2-0---

e---------------------- RIFF 1
b----------------------
g-5-3-0--0-3-5---------
d-5-3-0--0-3-5---------
a----------------------
e----------------------

e---------------------------- RIFF 2
b----------------------------
g---5--5--5--5--3--5--5------
d--5--5--5--5--3--5--5-------
a-3--3--3--3--1--3--3--------
e----------------------------

e---------------------------- RIFF 3
b----------------------------
g-5-3-0--0-3-0-3-0-3--0-3-5--
d-5-3-0--0-3-0-3-0-3--0-3-5--
a----------------------------
e----------------------------

REPEAT RIFFS

e------------------------------------------------------------------------------------- SOLO
b------12-13b-11--11----12-11-13b-11-10-8-8h10p8-------8--8------12-13b-15b-11-8------
g----10---------12----10------------------------10-8-10-10-10--10---------------------
d--12---------------12---------------------------------------12-----------------------
a-------------------------------------------------------------------------------------
e-------------------------------------------------------------------------------------

e-------8--------------------------------------------
b------8-11-8----------------------------------------
g-10b12------11-10--8-10-----5--8-7-5-3b5------------
d-----------------10----5-8-7-8----------------------
a----------------------------------------------------
e----------------------------------------------------

e-----------------3-------6-8b10-8-6h8p6---
b----------------3-6-3-6-8-----------------
g-5-3-2-3-2-0-5b7--------------------------
d------------------------------------------
a------------------------------------------
e------------------------------------------

e---------------3-----6-8b10-8-6h8p6---------
b------------3-6-3-6-8-----------------------
g-5b7-5b7-5b7--------------------------------
d--------------------------------------------
a--------------------------------------------
e--------------------------------------------

e-----------8----8----8----8--------------------
b-8-11-----8-11p8-11p8-11p8-11p88--10-13b15-----
g-----10b11----------------------11-------------
d-----------------------------------------------
a-----------------------------------------------
e-----------------------------------------------

e-13bb15-13b15-13b15-11--------------------
b----------------------13-13b15---6--------
g------------------------------5b7-5-7-----
d------------------------------------------
a------------------------------------------
e------------------------------------------

e--------8-6-8-8b10-----
b-------8---------------
g-3-5-3-----------------
d------5----------------
a-----------------------
e-----------------------

E.C.S.

Armagedn

Toegevoegd door Armagedn op za 19 feb, 2005 2:32 pm

Auteur: ?
Componist: ?
Uitgever: ?
Taal: Engels

Reacties

CommonCrawl [Bot]

Volg Muzikum