Deep Purple

Deep Purple
Women From Toykyo (Bass tab)

INTRO
|----------|----------|----------|----------|----------|----------|
|----------|----------|----------|----------|----------|----------|
|----------|----------|----------|----------|----------|----------|
|----------|----------|----------|----------|----------|----------|

|----------|----------|----------|----------|----------|----------|
|----------|----------|----------|----------|----------|----------|
|----------|----------|----------|----------|----------|----------|
|----------|----------|----------|----------|----------|----------|

|-------9-----|------9-----|------9-----|------9-------|------9-----|
|-*-----------|------------|------------|------------*-|------------|
|-*--7-----7--|---7-----7--|---7-----7--|---7-----7--*-|---7-----7--|
|-------------|------------|------------|--------------|------------|

|------------|
|------------|
|---7--7--7--|
|------------|

1_____________________
%1.
|---------------|---------------|---------------|---------------------|
|*--------------|---------------|---------------|--------------------*|
|*--------------|---------------|---------------|--------------------*|
|---O--O--O--O--|---O--O--O--O--|---O--O--O--O--|---O--O--4--4--5--7--|

2__________________

|------------------|
|------------------|
|------------------|
|---O--O--O--1--2--|

A Flying to the...
Talk about her...
Rising from the...
|------------------------|------------------------|------------------------|
|*-----------------2--5--|------------------2--5--|------------------2--5--|
|*-----2--3--4--5--------|------2--3--4--5--------|------2--3--4--5--------|
|---3--------------------|---3--------------------|---3--------------------|

TO CODA1
|------------------------|------------------------|------------------------|
|------------------2--5--|------------------2--5--|------------------2--5--|
|------2--3--4--5--------|------2--3--4--5--------|------2--3--4--5--------|
|---3--------------------|---3--------------------|---3--------------------|

|------------------------|---------------------------|
|------------------2--5--|------------------2--3--5--|
|------2--3--4--5--------|------2--3--4--5-----------|
|---3--------------------|---3-----------------------|

B %2,3

My woman from...
|---------------|---------------|---------------|---------------------|
|---------------|---------------|---------------|---------------------|
|---------------|---------------|---------------|---------------------|
|---O--O--O--O--|---O--O--O--O--|---O--O--O--O--|---O--O--O--4--5--7--|

My woman... TO CODA 2,3 1_________________
|---------------|---------------|---------------|------------------|
|---------------|---------------|---------------|-----------------*|
|---------------|---------------|---------------|-----------------*|
|---O--O--O--O--|---O--O--O--O--|---O--O--O--O--|---O--O--O--1--2--|

2_______________ C
But I'm at...
|---------------|---------------|------------9--6-----|------------|------|
|---------------|---------------|------7--7--------7--|------------|------|
|---------------|---------------|---7-----------------|------------|------|
|---O--O--O--O--|---5--5--5--5--|---------------------|---3--3--3--|---3--|

|---------|---------|
|---------|---------|
|---------|---------|
|---3--3--|---3--3--|

D
So far away...
Soon I shall...
|---------|---------|---------|---------|---------|---------|---------|
|*--------|---------|---------|---------|---------|---------|---------|
|*--------|---------|---------|---------|---------|---------|---------|
|---3--3--|---3--3--|---3--3--|---3--3--|---3--3--|---3--3--|---3--3--|

|---------|---------|---------|
|---------|---------|---------|
|---------|---------|---------|
|---3--3--|---3--3--|---3--3--|

E
1__________________________________________________
|---------|---------|---------|---------|---------|
|---------|---------|---------|---------|--------*|
|---------|---------|---------|---------|--------*|
|---3--3--|---3--3--|---3--3--|---3--3--|---3--3--|

F
2_________
|---------|---------|---------|---------|---------|---------|
|---------|---------|---------|---------|---------|---------|
|---------|---------|---3--3--|---3--3--|---3--3--|---3--3--|
|---3--3--|---3--3--|---------|---------|---------|---------|

G
|---12--|-------|---16---14S12--|-------|----------------|--------------|-----------|
|-------|---12--|---------------|---14--|---12---14--12--|---1O---9S1O--|--12---12--|
|-------|-------|---------------|-------|----------------|--------------|-----------|
|-------|-------|---------------|-------|----------------|--------------|-----------|

|---12---11S12---11S12--|---12---11S12---11S12--|---12--|---12--|
|-----------------------|-----------------------|-------|-------|
|-----------------------|-----------------------|-------|-------|
|-----------------------|-----------------------|-------|-------|

1 CODA
|------------------------|---------------------------|
|------------------2--3--|---5--------------2--3--5--|
|------2--3--4--5--------|------2--3--4--5-----------|
|---3--------------------|---------------------------|

2 CODA H
|---------------|-------------------|------------------|-------9---9---7---9--|
|---------------|*------------------|------------------|----------------------|
|---------------|*--2---2---2---2---|------------------|---7------------------|
|---O--O--O--O--|-------------------|---5---5---5---5--|----------------------|

|--------9---9---7---9--|-----------|-----------|
|-----------------------|-----------|-----------|
|---7-------------------|-----------|-----------|
|-----------------------|-----------|-----------|

1_____________________
|----------|----------|
|----------|---------*|
|----------|---------*|
|----------|----------|

I
2_____________
|------------------|------------------|------------------|------------------|
|------------------|------------------|------------------|------------------|
|---3---3---3---3--|---3---3---3---3--|---3---3---3---3--|---3---3---3---3--|
|------------------|------------------|------------------|------------------|

3 CODA J (6x)
|------------------------|---------------|---------------------|---------------|
|------------------------|*--------------|------------------O--|---------------|
|------------------------|*--------------|------------O--2-----|---------------|
|---O--4--5--6--7--5--4--|---O--O--O--O--|---O--O--O-----------|---O--O--O--O--|

( 2x )
|--------------------------------------------|
|-------------------------------------------*|
|-------------------------------------------*|
|---O--O--4--5--7--(O--7--6--5--4--3--2--1)--|

surfbass

Toegevoegd door surfbass op di 03 aug, 2004 10:48 am

Auteur: ?
Componist: ?
Uitgever: ?
Taal: Engels

Reacties

CommonCrawl [Bot]

Volg Muzikum