Deep Purple

Deep Purple
Sail Away (Bass tab)

Intro
w x4
G|---r---|
D|*--e--*|
A|*--s--*|
E|---t---|


e e e e e e e e e e e e e e q
G|------------------------------|-------------------------|
D|--------5---------------------|--------5----------------|
A|-----7-----7-----7-------5h7--|-----7-----7-------5-----|
E|--0-----------0-----5h7-------|--0-----------5h7-----3--|


e e e e e e e e e e e e e e q
G|------------------------------|-----------------------|
D|--------5---------------------|--------5--------------|
A|-----7-----7-----7-------5h7--|-----7-----7-----------|
E|--0-----------0-----5h7-------|--0-----------7--5--3--|


Verse
e e e e e e e e e e e e e e q
G|------------------------------|-------------------------|
D|--------5---------------------|--------5----------------|
A|-----7-----7-----7-------5h7--|-----7-----7-------5-----|
E|--0-----------0-----5h7-------|--0-----------5h7-----3--|


e e e e e e e e e e e e e e q
G|------------------------------|-----------------------|
D|--------5---------------------|--------5--------------|
A|-----7-----7-----7-------5h7--|-----7-----7-----------|
E|--0-----------0-----5h7-------|--0-----------7--5--3--|


Chorus part1
h h h h x2
G|---------|---------|
D|*--------|--------*|
A|*--2-----|--------*|
E|------5--|--3------|


Chorus part2
q e e q e e e e e e q e e x3
G|---------------------|----------------------------|
D|---------7--------7--|--------5------------------*|
A|------7--------7-----|-----7-----7---------------*|
E|---5--------5--------|--0-----------5h7p5--3--0---|


h h h h w
G|--------|--------|--r-----|
D|--------|--------|--e-----|
A|--------|--2-----|--s--\--|
E|--3--5--|--------|--t-----|


End riff
e e e e e e e e e e e e e e q
G|--------------------------|-----------------------|
D|--------5-----5-----5-----|--------5-----5--------|
A|-----7-----7-----7-----7--|-----7-----7-----7-----|
E|--0-----------------------|--0-----------------3--|


Intro
Verse x4
Chorus
Verse x4
Chorus
Verse x2
Chorus
Chorus part2
Verse x4
End riff (till end)

surfbass

Toegevoegd door surfbass op di 03 aug, 2004 10:46 am

Auteur: David Coverdale, Ritchie Blackmore
Componist: ?
Uitgever: EMI Music Sweden AB
Uitgegeven in: 2013
Taal: Engels

Reacties

CommonCrawl [Bot]

Volg Muzikum