Deep Purple

Deep Purple
Pictures Of Home (Bass tab)

w 5x E s e^ e^ e^ E s e^ e^ e^ 2x E s+(q) E
G---||---r---||--||----------------------------------||-----------------
D---||*--e--*||--||*--------------------------------*||-----------------
A---||*--s--*||--||*--2--2-----0--1--2--2-----0--1--*||-----------------
E---||---t---||--||---------2--------------2---------||--2--2+(2)-0-----


s+(q) E s+(q) E s s E E s e^ e^ e^ E s e^ e^ e^
G---------|-----------------------||------------------------------------
D---------|-----------------5-----||*-----------------------------------
A---------|--5--5+(5)-------------||*--2--2-----0--1--2--2-----0--1-----
E---0+(0)-|-----------3--3-----3--||---------2--------------2-----------


2x q q h w E s e^ e^ e^ E s e^ e^ e^ 6x E s
G----||-----r--r--|--r--||----------------------------------||----------
D---*||-----e--e--|--e--||*--------------------------------*||----------
A---*||--2--s--s--|--s--||*--2--2-----0--1--2--2-----0--1--*||--2--2----
E----||-----t--t--|--t--||---------2--------------2---------||----------


e^ e^ e^ q^ q^ q^ E s e^ e^ e^ q^ q^ q^ E s e^ e^ e^
G---------------------|--------------------------||---------------------
D---------------------|--------------------------||*--2--2-----0--1-----
A------0--1--2--0--2--|--5--5--------4--5-----5--||*--------2-----------
E---2-----------------|--------5--7--------5-----||---------------------


q^ q^ q^ E s e^ e^ e^ q^ q^ q^ 3x q^ q^ q^ q^ q^ q^ E
G------------|---------------------------||--------------------|--------
D---2-----2--|--------------------------*||--------------------|--------
A------2-----|--2--2-----0--1--2-----2--*||--3--3--3--5--5--5--|--------
E------------|--------2-----------2------||--------------------|--3-----


s s E E s s E E s s E E s s E 2x E s e^
G------------------------||----------------------------||---------------
D------5-----------5-----||*--------4-----------4-----*||---------------
A------------------------||*--------------------------*||---------------
E---3-----3--3--3-----3--||---2--2-----2--2--2-----2---||--2--2--2------


e^ e^ E s e^ e^ e^ e^ e^ e^ q e^ e^ e^ q E s e^ e^
G------------------------|--------------------------||------------------
D------------------------|--------------------------||*-----------------
A------------------------|--1--1--1--2--4--4--4--5--||*--2--2-----0-----
E---2--2--2--2--2--2--2--|--------------------------||---------2--------


e^ E s e^ e^ e^ 2x E s q E s q E s q E s s E
G----------------------||--------------------|--------------------------
D---------------------*||--------------------|-----------------5--------
A---1--2--2-----0--1--*||--------------------|--5--5--5-----------------
E------------2---------||--2--2--2--0--0--0--|-----------3--3-----3-----


E s e^ e^ e^ E s e^ e^ e^ 2x q q h w E s
G---||----------------------------------||-----r--r--|--r--||-----------
D---||*--------------------------------*||-----e--e--|--e--||*----------
A---||*--2--2-----0--1--2--2-----0--1--*||--2--s--s--|--s--||*--2--2----
E---||---------2--------------2---------||-----t--t--|--t--||-----------


e^ e^ e^ E s e^ e^ e^ 6x E s e^ e^ e^ q^ q^ q^ E s e^
G----------------------------||--------------------------|--------------
D---------------------------*||--------------------------|--------------
A------0--1--2--2-----0--1--*||--2--2-----0--1--2--0--2--|--5--5--------
E---2--------------2---------||--------2-----------------|--------5-----


e^ e^ q^ q^ q^ E s e^ e^ e^ q^ q^ q^ E s e^ e^ e^ q^
G------------------||---------------------------|-----------------------
D------------------||*--2--2-----0--1--2-----2--|-----------------------
A------4--5-----5--||*--------2-----------2-----|--2--2-----0--1--2-----
E---7--------5-----||---------------------------|--------2--------------


q^ q^ 3x q^ q^ q^ q^ q^ q^ E s s E E s s E E
G----------||--------------------|--------------------------||----------
D---------*||--------------------|--------5-----------5-----||*---------
A------2--*||--3--3--3--5--5--5--|--------------------------||*---------
E---2------||--------------------|--3--3-----3--3--3-----3--||---2------


s e^ e^ e^ E s e^ e^ e^ 3x e^ e^ e^ q e^ e^ e^ q E
G-------------------------------||--------------------------||----------
D------------------------------*||--------------------------||*---------
A------------------------------*||--1--1--1--2--4--4--4--5--||*--2------
E---2--2--2--2--2--2--2--2--2---||--------------------------||----------


s e^ e^ e^ E s e^ e^ e^ 19x E s e^ e^ e^ q e^ e^ e^ E
G-------------------------------||-----------------------------|--------
D------------------------------*||-----------------------------|--------
A---2-----0--1--2--2-----0--1--*||--2--2-----0--1--2-----0--1--|--------
E------2--------------2---------||--------2-----------2--------|--2-----


s e^ e^ e^ q^ q^ q^ E s s E E s s E E s e^ e^ e^
G------------------------|--------------------------|-------------------
D------------------------|--------------------------|-------------------
A------5-----------------|--------7-----------7-----|--5--5--5--5--5----
E---2-----0--1--2--2--2--|--0--0-----0--0--0-----0--|-------------------


E s e^ e^ e^ E s s E E s s E E s e^ e^ e^ E
G------------------|--------------------------||------------------------
D------------------|--------5-----------5-----||*-----------------------
A---5--5--5--5--5--|--------------------------||*-----------------------
E------------------|--3--3-----3--3--3-----3--||---2--2--2--2--2--2-----


s e^ e^ e^ 3x e^ e^ e^ q e^ e^ e^ q E s e^ e^ e^ E
G----------------||--------------------------||-------------------------
D---------------*||--------------------------||*------------------------
A---------------*||--1--1--1--2--4--4--4--5--||*--2--2-----0--1--2------
E---2--2--2--2---||--------------------------||---------2---------------


s e^ e^ e^ 6x E s e^ e^ e^ q^ q^ q^ E s e^ e^ e^ q^ q^
G----------------||--------------------------|--------------------------
D---------------*||--------------------------|--------------------------
A---2-----0--1--*||--2--2-----0--1--2--0--2--|--5--5--------4--5--------
E------2---------||--------2-----------------|--------5--7--------5-----


q^ E s e^ e^ e^ q^ q^ q^ E s e^ e^ e^ q^ q^ q^ 3x
G------||---------------------------|---------------------------||------
D------||*--2--2-----0--1--2-----2--|--------------------------*||------
A---5--||*--------2-----------2-----|--2--2-----0--1--2-----2--*||------
E------||---------------------------|--------2-----------2------||------


q^ q^ q^ q^ q^ q^ E s s E E s s E E s e^ e^ e^
G---------------------|--------------------------||---------------------
D---------------------|--------5-----------5-----||*--------------------
A---3--3--3--5--5--5--|--------------------------||*--------------------
E---------------------|--3--3-----3--3--3-----3--||---2--2--2--2--2-----


E s e^ e^ e^ 3x e^ e^ e^ q e^ e^ e^ q E s e^ e^ e^
G-------------------||--------------------------||----------------------
D------------------*||--------------------------||*---------------------
A------------------*||--1--1--1--2--4--4--4--5--||*--2--2-----0--1------
E---2--2--2--2--2---||--------------------------||---------2------------


E s e^ e^ e^ 19x E s e^ e^ e^ q e^ e^ e^ E s e^ e^ e^
G-------------------||-----------------------------|--------------------
D------------------*||-----------------------------|--------------------
A---2--2-----0--1--*||--2--2-----0--1--2-----0--1--|--------5-----------
E---------2---------||--------2-----------2--------|--2--2-----0--1-----


q^ q^ q^ E s s E E s s E E s e^ e^ e^ E s e^ e^
G------------|--------------------------|-------------------------------
D------------|--------------------------|-------------------------------
A------------|--------7-----------7-----|--5--5--5--5--5--5--5--5--5----
E---2--2--2--|--0--0-----0--0--0-----0--|-------------------------------


e^ E s s E E s s E E s e^ e^ e^ E s e^ e^ e^
G------|--------------------------||------------------------------------
D------|--------5-----------5-----||*-----------------------------------
A---5--|--------------------------||*-----------------------------------
E------|--3--3-----3--3--3-----3--||---2--2--2--2--2--2--2--2--2--2-----


2x e^ e^ e^ e^ e^ e^ e^ e^ e^ e^ e^ e^ e^ e^ e^ e^ e^ e^ e^
G----||--------------------------------------|--------------------------
D---*||--------------------------------------|-----------2--2--2--3-----
A---*||--1--1--1--2--2--2--3--3--3--4--4--4--|--5--5--5-----------------
E----||--------------------------------------|--------------------------


e^ e^ e^ e^ e^ e^ e^ e^ e^ e^ e^ e^ e^ e^ e^ e^ e^ e^ e^
G------------------|--4-----5-----6-----7-----8-----9-----|--10---------
D---3--3--4--4--4--|--------------------------------------|-------------
A------------------|-----2-----3-----4-----5-----6-----7--|------8------
E------------------|--------------------------------------|-------------


e^ e^ e^ e^ e^ e^ e^ e^ e^ e^ e^ e^ e^ e^ e^ e^
G---11-----12------13------14------15------|--16------17------18--------
D------------------------------------------|----------------------------
A-------9------10------11------12------13--|------14------15------16----
E------------------------------------------|----------------------------


e^ e^ e^ e^ e^ e^ H+(e) s s E E s e E e s
G---19------20------21------|--------------|----------------------------
D---------------------------|--------7--8--|--9--9-----9--10--10--------
A-------17------18------19--|--------------|--------7-------------10----
E---------------------------|--0+(0)-------|----------------------------


s E E s s h s s E E E E e E
G-------|--12--12--11--9--11--|--16--16--16--14--------------|----------
D---10--|---------------------|------------------16--15--14--|----------
A-------|---------------------|------------------------------|--14------
E-------|---------------------|------------------------------|----------


E e E E e E s e^ e^ e^ E s e^ e^ e^ 2x E s
G----------------------||----------------------------------||-----------
D-------------------0--||*--------------------------------*||-----------
A---12-----------------||*--2--2-----0--1--2--2-----0--1--*||-----------
E-------14--13--12-----||---------2--------------2---------||--2--2-----


q E s q E s q E s s E E s e^ e^ e^ E s e^
G---------------|-----------------------||------------------------------
D---------------|-----------------5-----||*-----------------------------
A---------------|--5--5--5--------------||*--2--2-----0--1--2--2--------
E---2--2--2--2--|-----------3--3-----3--||---------2--------------2-----


e^ e^ 2x q q q q q q h w 4x E s q E
G----------||-----------4--|--3--2--r--||---r---||--||------------------
D---------*||-----1--5-----|--------e--||*--e--*||--||*-----------------
A---0--1--*||--2-----------|--------s--||*--s--*||--||*--2--2-----2-----
E----------||--------------|--------t--||---t---||--||---------2--------


s e^ e^ e^ 33x w
G----------------||--r--||----------------------------------------------
D---------------*||--e--||----------------------------------------------
A---2-----0--1--*||--s--||----------------------------------------------
E------2---------||--t--||----------------------------------------------

surfbass

Toegevoegd door surfbass op di 03 aug, 2004 10:45 am

Auteur: Ian Gillan, Ian Paice, Jon Lord, Ritchie Blackmore, Roger Glover
Componist: ?
Uitgever: Eagle Rock Entertainment Ltd.
Uitgegeven in: 2001
Beschikbaar op: Live at Montreux 1996 (2006), Machine Head (2018), The Soundboard Series (2001), The Soundboard Series (2001)

Reacties

CommonCrawl [Bot]

Volg Muzikum