Deep Purple

Deep Purple
Never Before (Bass tab)

Intro:
x7
|----------------------|---------------------|
|----------------------|---------------------|
|--2----------------2--|---------------------|
|---------2----5-------|--------2----2--5----|



----------------------|-------------------|
----------------------|-------------------|
--2----------------2--|--2----------------|
---------2----5-------|-------------------|


Verse:

|----------------------|----------------------|
|----------------------|----------------------|
|--5--7----------------|--5--7----------------|
|----------0--0--------|----------0--0--------|


x3
--------2--------2--------|----------------------|
--0--4--------2-----------|--2-------------------|
-----------4--------0--4--|-----------------2----|
--------------------------|-----4------5---------|


Chorus:

--------------------4--|------4-----4-----4----|
--------------4--7-----|---------4-----4-------|
-----------6-----------|-----------------------|
--7--------------------|-----------------------|



--------------------4--|----------4-------------|
--------------4--7-----|----4--7-------7--4-----|
-----------6-----------|---------------------7--|
--7--------------------|------------------------|



----------------------|------------------------|
----------------------|---------------------5--|
--5----4----2---------|---------------2--5-----|
-----------------5----|--3----3----3-----------|



------------------------|-----------------------|
-------4--5----2--------|-----------------------|
----5-------------5--2--|-----------------------|
------------------------|--5----5----5----5--5--|



---------------------|-----------------------|
---------------------|-----------------7--5--|
---------------------|-----------4--7--------|
------5----5----5----|--5--------------------|



-------------------|------------------------|
--5----------------|--------7--------5------|
-------------------|--5--7-----5--7---------|
-------------------|------------------------|


Verse
Chorus

After chorus 2:

|-------------------|-------------------|
|-------------------|--3----------------|
|--3----------------|-------------------|
|-------------------|-------------------|


|-------------------|-------------------|
|--6----------------|-------------------|
|-------------------|--3----------------|
|-------------------|-------------------|


-------------------|-------------------|-------------------|
-------------------|--3----------------|--6----------------|
--3----------------|-------------------|-------------------|
-------------------|-------------------|-------------------|



-----------------------|
-----------------------|
-----------------------|
--0----1--3--4----5----|



Guitar solo:
x15
--4----4----4-----------|
------------------4--7--|
---------------6--------|
------------------------|


Verse
Chorus

Organ solo (verse x 3)



-------------------|------------------|----------------------||
-------------------|------------------|----------------------||
--7----------------|------------------|--5--7----7--7--------||
-------------------|------------------|----------------------||

surfbass

Toegevoegd door surfbass op di 03 aug, 2004 10:43 am

Auteur: Ian Gillan, Ian Paice, Jon Lord, Ritchie Blackmore, Roger Glover
Componist: ?
Uitgever: EMI Records Ltd
Uitgegeven in: 1972
Taal: Engels
Beschikbaar op: 30 (1998), In Concert '72 (2014), Machine Head (2018)

Reacties

CommonCrawl [Bot]

Volg Muzikum