Deep Purple

Deep Purple
Mitzi Dupree (Bass tab)

||**|| =repeat

3: =time sig
8:

G---||----------------|--------------|-----------|-----------|----------
D---||*--3:--3--1-----|--------------|-----1-----|-----------|--3--1----
A---||*--8:--------3--|--3--1-----1--|--3-----3--|--1--------|----------
E---||----------------|--------4-----|-----------|-----4--1--|----------



G------|--------------|--------1--|------||-----|-----|-----||----------
D------|--------------|-----1-----|--3--*||--1--|-----|-----||*--3------
A---3--|--3--1-----1--|--3--------|-----*||-----|--1--|-----||*---------
E------|--------4-----|-----------|------||-----|-----|--4--||----------



G------|--------|--------|------------||--||---------|-----------|------
D---3--|--1--1--|--------|--------1--*||--||*--------|-----------|------
A------|--------|--1--1--|--1--3-----*||--||*--4--4--|--4--4--4--|------
E------|--------|--------|------------||--||---------|-----------|------



G---------|------------||--------|-----------|--1--1--|--1--1--1--||----
D---1--1--|--1--1--1--*||--4--4--|--4--4--4--|--------|-----------||----
A---------|-----------*||--------|-----------|--------|-----------||----
E---------|------------||--------|-----------|--------|-----------||----

surfbass

Toegevoegd door surfbass op di 03 aug, 2004 10:41 am

Auteur: ?
Componist: ?
Uitgever: PolyGram Records, Inc.
Uitgegeven in: 1987
Taal: Engels

Reacties

CommonCrawl [Bot]

Volg Muzikum