Deep Purple

Deep Purple
Living Wreck (Bass tab)

0:16
Intro

G||----------------------|--------------------|
D||----------------------|--------------------|
A||--2-------------------|--------------------|
E||-------5----2------0--|--2--5--------------|



----------------------|-------------------|
----------------------|-------------------|
--2-------------------|-------------------|
-------5----2------0--|--2----------------|



----------------------|--------------------|
----------------------|--------------------|
--2-------------------|--------------------|
-------5----2------0--|--2--5--------------|



----------------------|---------------------|
----------------------|----------------2----|
--2-------------------|-----------4---------|
-------5----2------0--|--2------------------|


Verse

8x
|---------------9--9----11---||
|*---------9h11-------------*||
|*--9-----------------------*||
|----------------------------||



Chorus

--------7-----------7-----|--------------------------|
-----7-----7-----7-----7--|-----9-----9-----9-----9--|
--5-----------5-----------|--7-----7-----7-----7-----|
--------------------------|--------------------------|



---------11-------------11------|---------11-------------9------|
-----11------11-----11------11--|-----11------11-----11-----11--|
--9--------------9--------------|--9--------------9-------------|
--------------------------------|-------------------------------|



--------7-----------7-----|--------9-----------9-----|
-----7-----7-----7-----7--|-----9-----9-----9-----9--|
--5-----------5-----------|--7-----------7-----------|
--------------------------|--------------------------|



-------------------|------------------|
-------------------|------------------|
--4----------------|------------------|
-------------------|------------------|



----------------------------------|
----------------------------------|
----------------------------------|
--7-7-7-7-7-7-7-7-7-7-7-7-7-7-7-7-|



--------------------------------------------------|
--------------------------------------------------|
--------------------------------------------------|
--10-10-10-10-10-10-10-10-10-10-10-10-10-10-10-10/|



--------------------------------------------------|
--------------------------------------------------|
--------------------------------------------------|
--13-13-13-13-13-13-13-13-13-13-13-13-13-13-13-13-|



--------------------------------------------------|
--------------------------------------------------|
--------------------------------------------------|
--16-16-16-16-16-16-16-16-16-16-16-16-16-16-16-16-|



--------------------|
--------------------|
--------------------|
--19\---------------|



Intro 2

----------------------|--------------------|
----------------------|--------------------|
----------------------|--------------------|
--0----2----2------0--|--2--5--------------|



----------------------|-----------------9----|
----------------------|-----------11---------|
--2-------------------|----------------------|
-------5----2------0--|--2-------------------|



Verse x1
Chorus x1


Guitar solo

|----------------------|--------------------|
|*---------------------|--------------------|
|*---------------------|--------------------|
|---0----2----------0--|--2--5--------------|


3x
---------------------|--------------------||
---------------------|-------------------*||
---------------------|-------------------*||
--0----2----------0--|--2-----------------||



---------------------|--------------------|---------------------|
---------------------|--------------------|---------------------|
---------------------|--------------------|---------------------|
--0----2----------0--|--2--5--------------|--0----2----------0--|



---------------------|
----------------2----|
-----------4---------|
--2------------------|


Verse x1
Chorus x1


Organ solo

3x
|-----------------------------||---------------------------|
|*---------------------------*||---------------------------|
|*--9--9--9---9-9--9--9--9-9-*||--7h9-9--7--7--7-----------|
|-----------------------------||------------------9--7--9--|



-------------------------------|--------------------------------|
-------------------------------|-----7--------------------------|
--7h9-9--9---9-9-9-9-9-9-9-9-7-|--9-----9-9-9-9-9-9-9-9-9-9-9-9-|
-------------------------------|--------------------------------|



-------------------------------|
-------------------------------|
--7--7--9--9-9-9-9-9-9-9-9-9-9-|
-------------------------------|



----------------11-11-11-11-11-11-11-11-|
-------------11-------------------------|
--9--9--9--9----------------------------|
----------------------------------------|



-------------------------------|---------------------------|
-------------------------------|---------------------------|
--9--9--9--9-9-9-9-9-9-7-7-7-7-|--9---9-9---9-9-9-7--7--7--|
-------------------------------|---------------------------|



-------------------------------|---------------------------|
-------------7-7-9-9-9-9-7-----|---------------------------|
--9--9--9--9---------------9-9-|--9--9--9--9-9-9--7--7--7--|
-------------------------------|---------------------------|



------------------------------|--------------------------------|
------------------------------|--------------------------------|
--9--9-9-9--9-9-9--9-9-9--9-9-|--9--9-9-9--9-9-9-7-7-7-7-7-7-7-|
------------------------------|--------------------------------|



----------------------------|--------------------------|
----------------------------|--------------------------|
--9--9-9-9--9-9-9-7---7--7--|--9--9--7--7--4--4--------|
----------------------------|--------------------7--5--|



--------------------------|-----------------------------||
-----------------------2--|-----------------------------||
----------------2---4-----|-----------------------------||
--2--2--2--2--2-----------|--2--2-2-2--2-2-2--2-2-0--1--||

surfbass

Toegevoegd door surfbass op di 03 aug, 2004 10:35 am

Auteur: Ian Gillan, Ian Paice, Jon Lord, Ritchie Blackmore, Roger Glover, Deep Purple
Componist: ?
Uitgever: EMI Records Ltd
Uitgegeven in: 1990
Taal: Engels
Beschikbaar op: In Rock (1970)

Reacties

CommonCrawl [Bot]

Volg Muzikum