Deep Purple

Deep Purple
Into The Fire (Bass tab)

Intro

3x
||--------------------------|---------------------------||
||*----------------0--0---1-|--2-----------------------*||
||*--2----2----0h2----------|--------------------0--1--*||
||--------------------------|----0---1--2--3--4---------||



--------------------------|
--------------------0--1--|
--2-0---1--2--3--4--------|
--------------------------|


Verse
x3
||-----------------------|-------------------------||
||*-------2---------2----|-------2----------------*||
||*----------------------|------------------------*||
||---0---------0---------|--0---------0---0-3--5---||



-------------------------|-------------------------|
-------------------------|------------2------------|
--2----2----2-0----0--1--|--2----2------5--2-------|
----------------3--------|--------------------5--3-|



--------------------|
--------------------|
--------------------|
--0--0--------------|


Intro x1
Verse x1
Intro x1

Guitar solo


4x 2x
||-----------------------|-------------------------||----------------||
||*-------2---------2----|-------2----------------*||*--------------*||
||*----------------------|------------------------*||*--------------*||
||---0---------0---------|--0---------0---0-3--5---||---2--2---------||



--------------------3--4--|-------------------------||
--------3--4--------------|-------------------0--1--||
--1--2--------1--2--------|----0--1--2--3--4--------||
--------------------------|-------------------------||


Verse x1


4x
||--------------------------|---------------------------||
||*----------------0--0---1-|--2-----------------------*||
||*--2----2----0h2----------|--------------------0--1--*||
||--------------------------|----0---1--2--3--4---------||



--------------------------|--------------------3--4--|
--------------------0--1--|--------3--4--------------|
--2-0---1--2--3--4--------|--1--2--------1--2--------|
--------------------------|--------------------------|


-------------------------|-----------||
-------------------0--1--|-----------||
----0--1--2--3--4--------|-----------||
-------------------------|----0------||

surfbass

Toegevoegd door surfbass op di 03 aug, 2004 10:34 am

Auteur: Ian Gillan, Ian Paice, Jon Lord, Ritchie Blackmore, Roger Glover, Deep Purple
Componist: ?
Uitgever: Edel Germany GmbH
Uitgegeven in: 1970
Taal: Engels

Reacties

CommonCrawl [Bot]

Volg Muzikum