Deep Purple

Deep Purple
Hard Lovin Man (Bass tab)

Intro
x12
G||---------------------------|--------------------------||
D||*--7-----7-----7-----7-----|--7-----7-----5/---10----*||
A||*-----0-----0-----0-----0--|-----0-----0-------------*||
E||---------------------------|--------------------------||



--------------------------|---------------------------|
--5--5--5--5--5--5--5--5--|------3--------3-----------|
--------------------------|--3h5------3h5------5p3----|
--------------------------|------------------------6--|



Verse

x4
|---------------------------|-------------------------||
|*--5-----5-----5-----5-----|--5-----5-----3/---8----*||
|*-----5-----5-----5-----5--|-----5-----5------------*||
|---------------------------|-------------------------||



--7--7--7--7--7--7--7--7--|-----10-----------------|
--------------------------|--8------8--10----------|
--------------------------|------------------------|
--------------------------|------------------------|



------------------|---------------|
------------------|--10--8--------|
------------------|---------10----|
------------------|---------------|

Intro 2


x4
||---------------------------|--------------------------||
||*--7-----7-----7-----7-----|--7-----7-----5/---10----*||
||*-----0-----0-----0-----0--|-----0-----0-------------*||
||---------------------------|--------------------------||



--------------------------|---------------------------|
--5--5--5--5--5--5--5--5--|------3--------3-----------|
--------------------------|--3h5------3h5------5p3----|
--------------------------|------------------------6--|


Verse x1


Intro 3
x3
|---------------------------|--------------------------||
|*--7-----7-----7-----7-----|--7-----7-----5/---10----*||
|*-----0-----0-----0-----0--|-----0-----0-------------*||
|---------------------------|--------------------------||


-------------------6-6--7--8--|
--7-7--9-9--10-10-------------|
------------------------------|
------------------------------|


Organ solo


37x
|----------------------------||
|*--------------------------*||
|*--7-----7-----7-----7-----*||
|------0-----0-----0-----0---||



---------------------------|--------------------------|
*--------------------------|--------------------------|
*--7-----7-----7-----7-----|--5-----5-----0--4--5--6--|
------7-----7-----7-----7--|-----5-----5--------------|


2x
--------------------------|---------------------------||
--------------------------|--------------------------*||
-----2-----2-----2-----2--|-----2-----2-----2-----2--*||
--0-----0-----0-----0-----|--0-----0-----0-----0------||


Guitar solo


12x 14x
----------------------------||----------------------------||
*--7-----7-----7-----7-----*||*--------------------------*||
*-----7-----7-----7-----7--*||*--7-----7-----7-----7-----*||
----------------------------||------7-----7-----7-----7---||



---------------------------|--------------------------|
*--------------------------|--------------------------|
*--7-----7-----7-----7-----|--5-----5-----0--4--5--6--|
------7-----7-----7-----7--|-----5-----5--------------|


2x
--------------------------|---------------------------||
--------------------------|--------------------------*||
-----2-----2-----2-----2--|-----2-----2-----2-----2--*||
--0-----0-----0-----0-----|--0-----0-----0-----0------||



--------------------------|--------------------------|
-----5-----5-----5-----5--|-----7-----7-----7-----7--|
--3-----3-----3-----3-----|--5-----5-----5-----5-----|
--------------------------|--------------------------|



--------------------------|--------------------------|
-----9-----9-----9-----9--|-----9-----9-----9-----9--|
--7-----7-----7-----7-----|--7-----7-----7-----7-----|
--------------------------|--------------------------|



Intro 2 x1
Verse x1


x4
||---------------------------|--------------------------||
||*--7-----7-----7-----7-----|--7-----7-----5/---10----*||
||*-----0-----0-----0-----0--|-----0-----0-------------*||
||---------------------------|--------------------------||


--------------------------|--------------------------|
--------------------------|-----------------------5--|
--7--5--7--5--7--5--5--7--|--7--5--7--5--7--5--7-----|
--------------------------|--------------------------|



--------------------------|-----------------------------|
-----------------------5--|--7--9--7--------------------|
--7--5--7--5--7--5--7-----|-----------10--7------7--10--|
--------------------------|------------------10---------|



|----------------------------||--||
|*--------------------------*||--||
|*--7--5--7--5--7--5--7--5--*||--||
|----------------------------||--||

surfbass

Toegevoegd door surfbass op di 03 aug, 2004 10:33 am

Auteur: Ian Gillan, Ian Paice, Jon Lord, Ritchie Blackmore, Roger Glover, Deep Purple
Componist: ?
Uitgever: Edel Germany GmbH
Uitgegeven in: 1990
Taal: Engels

Reacties

CommonCrawl [Bot]

Volg Muzikum