Deep Purple

Deep Purple
Smoke On The Water Ver 4 (Guitar tab)

|----------------------------------------------------------------|
|Deep Purple - Smoke on the water |
|----------------------------------------------------------------|

[Riff 1]:
e|------------------------------------------|
h|------------------------------------------|
g|--0--3--5---0--3--6-5---0--3--5---3--0-0--|
D|--0--3--5---0--3--6-5---0--3--5---3--0-0--|
A|------------------------------------------|
E|------------------------------------------|

[Riff 2]:
e|----------------------------------------------------------|
h|----------------------------------------------------------|
g|----------------------------------------------------------|
D|------5------5------5------5------5------3------5------5--|
A|----5------5------5------5------5------3------5------5----|
E|--3------3------3------3------3------1------3------3------|

[Riff 3]:
e|--------------------------------------------------------|
h|--------------------------------------------------------|
g|--5--5--3--0---0-3-0-3-0-3-0--0-3-0-3-0-3---5--5--3--0--|
D|--5--5--3--0---0-3-0-3-0-3-0--0-3-0-3-0-3---5--5--3--0--|
A|--------------------------------------------------------|
E|--------------------------------------------------------|

Riff 1 >6x
Riff 2 >4x
Riff 3 >1x

Riff 1 >2x
Riff 2 >4x
Riff 3 >1x

Riff 1 >2x
Solo *

Riff 1 >2x
Riff 2 >4x
Riff 3 >1x

Riff 1 >4x

Solo:
|-----------------------------------------------------------------
|------------13B[15]R-11----11----------11-11B[13]----------------
|-----10-12--------------12-------10-12---------------------------
|--12--------------------------12---------------------------------
|-----------------------------------------------------------------
|-----------------------------------------------------------------

------------------------------------------------------------------
--11-10-8-10--8h10p8-8-----8---------8-----8----8-11B[13]-8-------
------------------------10---10-8-10----10---10-------------------
------------------------------------------------------------------
------------------------------------------------------------------
------------------------------------------------------------------

------------8-----------------------------------------------------
----------8---11-8------------------------------------------------
--10B[12]----------11-10-8----8-10---------5---8-7-5-3B[5]R-------
---------------------------10--------5-8-7---8--------------------
------------------------------------------------------------------
------------------------------------------------------------------

---------------------------3---3-3--------------------------------
-------------------------3---6-----6-5-3--------------------------
--5-3-2-3-2-3-2-0--5B[7]-----------------6-5-3---3-5-5B[7]--------
-----------------------------------------------5------------------
------------------------------------------------------------------
------------------------------------------------------------------

-------------------------3-------6-8B[10]--8B[10]-8-6h8p6---------
---------------------3-6---3-6-8--------------------------8-------
--5B[7]-5B[7]-B5[7]-----------------------------------------------
------------------------------------------------------------------
------------------------------------------------------------------
------------------------------------------------------------------

-----------------8------8------8------8------8-----10-13B[15]R----
--8-11---------8---11p8---11p8---11p8---11p8----11----------------
-------10B[11]----------------------------------------------------
------------------------------------------------------------------
------------------------------------------------------------------
------------------------------------------------------------------

--13B[15]R--13B[15]-R--13B[15]--11--------------------------------
-----------------------------------13-13B[15]--------6------------
-----------------------------------------------5B[7]---5R[7]------
------------------------------------------------------------------
------------------------------------------------------------------
------------------------------------------------------------------

------------8-6-8-8B[10]-R!----------|
----------8-----------------6-6B[7]--|
--3-5-3------------------------------|
--------5----------------------------|
-------------------------------------|
-------------------------------------|

|----------------------------------------------------------------|

wbf

Toegevoegd door wbf op vr 26 maart, 2004 12:32 am

Auteur: ?
Componist: ?
Uitgever: ?
Taal: Engels

Reacties

CommonCrawl [Bot]

Volg Muzikum