Deep Purple

Deep Purple
Smoke On The Water Solo (Guitar tab)

Deep Purple - Smoke On The Water
Tabbed by Ruben



Main Riff

E---------------|------------------|---------------|------------|
B---------------|------------------|---------------|------------|
G----0--3--5----|----0--3--6--5----|----0--3--5----|----3--0----|
D----0--3--5----|----0--3--6--5----|----0--3--5----|----3--0----|
A---------------|------------------|---------------|------------|
E---------------|------------------|---------------|------------|

Solo

E----------------|-----------------------|----------------------|
B----------------|--15-\-13--------------|----------------13~~--|
G----------12~~--|----------15-12~~--15--|---------12-15--------|
D--12--15--------|-----------------------|--12-15---------------|
A----------------|-----------------------|----------------------|
E----------------|-----------------------|----------------------|

E----------------------------|----------------------------------|
B----------------------------|----------------------------------|
G--15-14-12--14--12------12--|--------------------12------12~~--|
D--------------------15------|--15--12--15----15------15--------|
A----------------------------|----------------------------------|
E----------------------------|----------------------------------|

E------------------|--------------|-----------------------------|
B--------13----13--|--13----------|---------13------------------|
G--12-15----15-----|------12--15--|--12--12----15--12-----------|
D------------------|--------------|--------------------15--12---|
A------------------|--------------|-----------------------------|
E------------------|--------------|-----------------------------|

E---------------------|-----------------------------------------|
B---------------------|-----------------------------------------|
G--15-12--------------|-----------------------------------------|
D--------15-12--------|-------------------13-12-----------------|
A--------------15-13--|-----13--12-15--13-------15--13h15p13~~--|
E---------------------|--15-------------------------------------|

E-------------------------------|-------------------------------|
B-------------------------------|-------------------------------|
G-------------------------------|--------12----12---------------|
D-------------------------------|--12-15----12----15-12---------|
A--15-13-12--13-12--13-12-------|------------------------15-13--|
E-------------------------15-\--|-------------------------------|

E--------------------|------------------------------------------|
B--------------------|----------------------15--15-13----13-----|
G--------------------|-------12-------12-15-----------15----12--|
D--------12-12-12-12-|-12-15----12-15---------------------------|
A-15-13--------------|------------------------------------------|
E--------------------|------------------------------------------|

E--------------------------------------------------------15~~---|
B---------13----------13----------13--------------13-15---------|
G--12-15-----15p12-------15p12-------15p12----15----------------|
D---------------------------------------------------------------|
A---------------------------------------------------------------|
E---------------------------------------------------------------|

E-15-13-15-13-15~~--13-15-13------------|-----------------------|
B----------------------------15-13-15~~-|-----------------------|
G---------------------------------------|-----------------------|
D---------------------------------------|-12-15-12--------------|
A---------------------------------------|----------15--15-13----|
E---------------------------------------|--------------------15-|

E---------------------------------------------------------------|
B-----13----13-15--15-15-15--15-15-14-14-14-14--13-13-13--------|
G--12----15-----------------------------------------------12~~--|
D---------------------------------------------------------------|
A---------------------------------------------------------------|
E---------------------------------------------------------------|




Comments, suggestions, corrections, anything???
Mail me at drb_89@spray.no

drb

Toegevoegd door drb op zo 21 maart, 2004 12:37 pm

Auteur: ?
Componist: ?
Uitgever: ?
Taal: Engels

Reacties

CommonCrawl [Bot]

Volg Muzikum