Deep Purple

Deep Purple
Fireball Ver 4 (Guitar tab)

Deep Purple - Fireball
Tabbed by Ruben



Verse:

E---------------------------|-------------------------|
B---------------------------|-------------------------|
G---------------------------|-------------------------| x4
D---------------------------|-------------------------|
A------------------5--------|-------------5-----------|
E--5h7-7-7-7--7-7-----7--5--|--5h7-7-7-7-----7--5--7--|

Chorus:

E-----------------------------------------------------|
B----------------------9---------7---------------2----|
G----------------------9---------8---------------3----|
D----------------------9---------9---------------4----|
A---------4-5-7---------------------------------------|
E----5------------0---------7---------7\----2---------|

Verse:

E---------------------------|-------------------------|
B---------------------------|-------------------------|
G---------------------------|-------------------------| x4
D---------------------------|-------------------------|
A------------------5--------|-------------5-----------|
E--5h7-7-7-7--7-7-----7--5--|--5h7-7-7-7-----7--5--7--|

Chorus 2:

E-------------------------------2----|
B-------------------------------2----|
G-------------------------------3----|
D------------------------9------4----|
A---------4-5-7----------9------4----|
E----5------------0------7-----------|

Bridge:

E-------------------------------------------------------------------|
B-------------------------------------------------------------------|
G-------------------------------------------------------------------|
D-------------------------------------------------------------------|
A-7-7-7-7-7-7-7-7--4-4-4-4-4-4-4-4--3-3-3-3-3-3-3-3-----2-2-3-3-4-4-|
E---------------------------------------------------3-3-------------|

E-------------------------------------------|-----------------------|
B-------------------------------------------|-----------------------|
G-------------------------------------------|-----------------------|
D-------------------------------------------|-----------------------|
A-5-5-5-5-5-5-5-5---------------3h4p3h4p3h4-|-----------3h4p3h4p3h4-|
E-----------------5-\-2-2-2-2-2-------------|-2-2-2-2-2-------------|

E---------------------------------------------|
B---------------------------------------------|
G---------------------------------------------|
D---------------------------------------------|
A------------3h4p3h4p3h4---------3h4p3h4p3h4--|
E--2-2-2-2-2-------------2-2-2-2--------------|

Verse:

E---------------------------|-------------------------|
B---------------------------|-------------------------|
G---------------------------|-------------------------| x4
D---------------------------|-------------------------|
A------------------5--------|-------------5-----------|
E--5h7-7-7-7--7-7-----7--5--|--5h7-7-7-7-----7--5--7--|

Chorus:

E-----------------------------------------------------|
B----------------------9---------7---------------2----|
G----------------------9---------8---------------3----|
D----------------------9---------9---------------4----|
A---------4-5-7---------------------------------------|
E----5------------0---------7---------7\----2---------|




Comments, suggestions, corrections, anything???
Mail me at drb_89@spray.no

drb

Toegevoegd door drb op zo 21 maart, 2004 12:36 pm

Auteur: ?
Componist: ?
Uitgever: ?
Taal: Engels

Reacties

CommonCrawl [Bot]

Volg Muzikum