Deep Purple

Deep Purple
Black Night Ver 6 (Guitar tab)

Deep Purple - Black Night
Tabbed by Ruben

Intro:

E----------------------------------------------------------|
B----------------------------------------------------------|
G----------------------------------------------------------|
D----------------------------------------------------------|
A--7-7-7--7-7-7--5-5-5--5-5-5------------------------------|
E------------------------------7-7-7--7-7-7--3-3-3--3-3-3--|

Verse:

E-----------------------------------------|
B-----------------------------------------|
G-----------------------------------------| x2
D----5-----------5-----7-5-----------5----|
A--7---7-5---5-7---7-------7---5-7-----7--|
E----------7------------------------------|

E-------------------------|
B-------------------------|
G-------------------------| x6
D-------------------------|
A--5--7-------7-----7-----|
E----------0-----0-----0--|

Chorus:

E------------------------------------------------------|
B------------------------------------------------------|
G------------------------------------------------------|
D------------------------------------------------------|
A----7---5-------5-------5---7/9---7---5---7---5-------|
E------------7-------7-----------------------------7---|

E------------------------------------|-----------------|
B------------------------------------|-----------------|
G------------------------------------|-----------------|
D---------7p5h7p5---7p5---------5----|--------5---3----|
A---------------------------7--------|-----------------|
E----5-------------------------------|----3------------|

E--------------------------|--------12--------12--12\--|
B--------------------------|-----12--------12----------|
G-----------12----14-12~~--|--15--------15-------------|
D-----12-14----14----------|---------------------------|
A--14----------------------|---------------------------|
E--------------------------|---------------------------|

E--------------------------|---------------------------|-----|
B--------------------------|---------------------------|-----|
G--------------------------|---------------------------|--4--|
D--------7---5--------5----|---------5---3-------3-----|--4--|
A-----------------7--------|-----------------5---------|--2--|
E----5---------------------|-----3---------------------|-----|




Comments, suggestions, corrections, anything???
Mail me at drb_89@spray.no

drb

Toegevoegd door drb op zo 21 maart, 2004 12:35 pm

Auteur: ?
Componist: ?
Uitgever: ?
Taal: Engels

Reacties

CommonCrawl [Bot]

Volg Muzikum