Deep Purple

Deep Purple
Smoke On The Water Intro Ver 5 (Guitar tab)

Mickey Tabsmikimp@pf.pl
Deep PurpleSmoke on the Water
Album "Made in Japan" - live version (Osaka, 15th August '72)

Before intro, singer says "It's a song... Smoke on the Water" and guitarist plays (propers he got ready) this:
Please don't get it serious to play, it's only for your knowledge.

(few times)
E|-0-0------|-0---|
B|-0-0--0-0-|--0--|
G|-0-0--0-0-|---0-|
D|-0-0--0-0-|-----|
A|------0-0-|-----|
E|----------|-----|



Intro:
I think this intro is in G, so I tabbed it to G.

Part 1 Part 2 Part 3
E|--------------------------------|----------------------------------|-----------------|
B|--------------------------------|----------------------------------|-----------------|
G|--------------------------------|----------------------------------|-----------------|
D|-5-8-10--5-8-11-10--5-8-10--8-5-|-5-8-8-5-8-5-8-8--5-8-8-5-8^^^^^^-|-5-x---x---x---x-|
A|-5-8-10--5-8-11-10--5-8-10--8-5-|-5-8-8-5-8-5-8-8--5-8-8-5-8^^^^^^-|-5-x---x---x---x-|
E|-3-6-8---3-6-9--8---3-6-8---6-3-|-3-6-6-3-6-3-6-6--3-6-6-3-6^^^^^^-|-3-x---x---x---x-|


Next play Part 1 about 6 times.



--
Have fun!

OptimusPrime

Toegevoegd door OptimusPrime op do 12 feb, 2004 5:28 pm

Auteur: ?
Componist: ?
Uitgever: ?
Taal: Engels

Reacties

CommonCrawl [Bot]

Volg Muzikum