Deep Purple

Deep Purple
When A Blind Man Cries (Bass tab)

Song: When a blind man cries
Artist Deep Purple

4x
G||------------------||----------------------||-------------------|
D||------------------||*-----------2--------*||-------------------|
A||------------------||*--2-----------------*||--2----------------|
E||------------------||----------------------||-------------------|



--------------------|--------------------|-------------------|
--------------------|--------------------|-------------------|
--2--------------2--|--0--------------0--|--2----------------|
--------------------|--------------------|-------------------|



--------------------|--------------------|--------------------|
--------------------|--------------------|--------------------|
--2--------------0--|--2--------------2--|--0--------------0--|
--------------------|--------------------|--------------------|



-------------------|-------------------|--------------------|
-------------------|-------------------|--------------------|
--2----------------|--2----------------|--5--------------0--|
-------------------|-------------------|--------------------|



--------------------|--------------------|--------------------|
--------------------|--------------------|--------------------|
--------------------|-----------------5--|--2--------------2--|
--3--------------3--|--0-----------------|--------------------|



-------------------|----------------------|-------------------|
-------------------|--5----4----2---------|-------------------|
--5----------------|-----------------5----|--2----------------|
-------------------|----------------------|-------------------|



---------------------|---------------------|---------------------|
---------------------|---------------------|---------2-----------|
--2---------2--------|--2---------2--------|--0---------0--------|
----------2----------|----------2----------|---------------------|



---------------------|---------------------|---------------------|
---------------------|---------------------|---------------------|
--2------0--2--------|--2---------2--------|--2---------2--------|
---------------------|----------2----------|----------2----------|



----------------------|---------------------|---------------------|
----------------------|---------------------|---------------------|
--0----------0-----0--|--2---------------0--|--2------------------|
----------------0-----|---------------2-----|---------------2--5--|



-------------------|----------------------|-------------------|
-------------------|----------------------|-------------------|
--5----------------|----------------2-----|-------------------|
-------------------|--3----------3-----3--|--0----------------|



----------------------|---------------------|----------------------|
----------------------|---------------------|--5----4----2---------|
--2-----------0----2--|--5---------5--------|-----------------5----|
-----------2----------|----------5----------|----------------------|



------------------|------------------------|-------------------------|
------------------|------------------------|-------------------------|
--2---------------|--2----2-----2--2-------|--2----2-----2--2-----2--|
-----------0h2-5--|-----------2---------2--|-----------2-------2-----|



-----------------------|----------------------|-----------------------|
-------2---------------|----------------------|-----------------------|
--0---------0-------0--|--2-------------------|--2---------2--2-------|
-----------------2-----|---------------0h2-5--|----------2---------2--|



----------------------|-----------------------|-----------------------|
----------------------|---------2-------------|-----------------------|
--2-------2-----2-----|--0---------0-------0--|--2--------2--0-----0--|
--------2----2-----2--|------------------2----|-----------------2-----|



-------------------|----------------------|----------------------|
-------------------|----------------------|----------------------|
--2----------------|--5-------------5-----|----------------2-----|
-------------------|-------------5-----5--|--3----------3-----3--|



-------------------|------------------------|-----------------------|
-------------------|------------------------|-----------------------|
-------------------|--2---------2-----2--4--|--5---------5----------|
--0----------------|---------2-----2--------|---------5-------3--2--|



----------------------|-------------------|-------------------|
--5----4----2---------|-------------------|-------------------|
-----------------5----|--2----------------|--2----------------|
----------------------|-------------------|-------------------|



-------------------|-------------------||
-------------------|-------------------||
--2----------------|--2----------------||
-------------------|-------------------||

OptimusPrime

Toegevoegd door OptimusPrime op do 14 aug, 2003 4:36 pm

Auteur: Ian Gillan, Ian Paice, Jon Lord, Roger Glover, Ritchie Blackmore
Componist: ?
Uitgever: Parlophone Records Ltd.
Uitgegeven in: 2001
Taal: Engels

Reacties

CommonCrawl [Bot]

Volg Muzikum