Deep Purple

Deep Purple
Vavoom (Bass tab)

Deep Purple - Vavoom (Ted the Mechanic)
From the album "Purpendicular"

Bass Tab by Matheus Malafaia - malafaia@uol.com.br

Standard Tunning
H - Hammer On

INTRO:

1X 4X
G -------|-------------------------|
D -------|-------------------------|
A -------|-------------------------|
E --3--0-|-3--0--3--0--5--0--3--0--|

LYRICS:

1X 3X ...then...
G----|-------------------------|--------------------------|
D----|-------------------------|--------------------------|
A----|-------------------------|--------------0--1--2-----|
E--0-|-3--0--3--0--5--0--3--0--|--3--0--3--0-----------0--|

CHORUS:

G----|---------|---------|-------------|
D----|----2----|-0-------|----0--------|
A--2-|-0-----2-|----0--2-|-2-----0-----|
E----|---------|---------|----------3--|

BRIDGE:
2X ...then...
G-------------------------------------------------|---------------------
D-------------------------------------------------|---------------------
A--5--5--5--5--5--5--5--2--3--3--3--3--3--3--3--3-|-5--5--5--5--5--5--5-
E-------------------------------------------------|---------------------

G-------------------------------------------------------------------|
D-------------------------------------------------------------------|
A--2--3-----------------------------------------0--2--0--2--0--2--2-|
E--------0--1--2--3--3--3H-5--3H-5--3H-5--3H-5----------------------|

OUTRO:
(Just last time)
G---------------------------------------------------|
D---------------------------------------------------|
A-0--2--0--2--0--2--0--2--0--2--0--2--0--5--0-------|
E----------------------------------------------3--0-|

This is quite an easy song to play, though you should listen to it to get it right. Have fun you lords of the low frequencies!!!
Any corrections/comments are welcome. Email me: malafaia@uol.com.br

OptimusPrime

Toegevoegd door OptimusPrime op do 14 aug, 2003 4:36 pm

Auteur: ?
Componist: ?
Uitgever: ?
Taal: Engels

Reacties

CommonCrawl [Bot]

Volg Muzikum