Deep Purple

Deep Purple
Speed King (Bass tab)

Song: Speed King
Artist: Deep Purple


1:33 q q q q q q q q
G----------------r--r--r-----|-----r--r-----|---------------
D---4:-----------e--e--e-----|-----e--e-----|---------------
A---4:-----------s--s--s-----|-----s--s-----|---------------
E----------------t--t--t--1--|--3--t--t--1--|---------------


q q q q q q q e e q q q q
G------r--r-----|-----------------|-----r--r-----|----------
D------e--e-----|-----------------|-----e--e-----|----------
A------s--s-----|-----3--1--------|-----s--s-----|----------
E---3--t--t--1--|--3--------3--1--|--3--t--t--1--|----------


q q q q q q q q q q q e e
G------r--r-----|-----r--r-----|-----------------|----------
D------e--e-----|-----e--e-----|-----------------|----------
A------s--s-----|-----s--s-----|-----3--1--------|----------
E---3--t--t--1--|--3--t--t--1--|--3--------3--1--|----------


q q q q e q Q q e q Q q
G------r--r-----|--------------|--------------|-------------
D------e--e-----|--------------|--------------|-------------
A------s--s-----|--------------|--------------|-------------
E---3--t--t--1--|--3--3--3--1--|--3--3--3--1--|-------------


q q q e e e q Q q e q Q q
G------------------|--------------|--------------|----------
D------------------|--------------|--------------|----------
A------3--1--------|--------------|--------------|----------
E---3--------3--1--|--3--3--3--1--|--3--3--3--1--|----------


e q Q q q q q e e q H
G---------------|-----------------|-------------------------
D---------------|-----------------|-------------------------
A---------------|-----3--1--------|-----1-------------------
E---3--3--3--1--|--3--------3--1--|--3----------------------


e e e e q e q q q q e 3x
G---||------------------------|---------------||------------
D---||*-----------------------|--------------*||------------
A---||*--3--1--3--1--3--1--3--|--------------*||------------
E---||------------------------|--0--1--2--3---||------------


h h e q e q e q e q q q
G---------|--5--5--5--3--5-----|--------------|-------------
D---------|-----------------5--|-----3--1-----|-------------
A---1-----|--------------------|--3--------1--|-------------
E------1--|--------------------|--------------|-------------


q q q q q q q q q q q q
G------r--r--r--|--r--r--r-----|-----r--r-----|-------------
D------e--e--e--|--e--e--e-----|-----e--e-----|-------------
A---3--s--s--s--|--s--s--s-----|-----s--s-----|-------------
E------t--t--t--|--t--t--t--1--|--3--t--t--1--|-------------


q q q q q q q e e q q q q
G------r--r-----|-----------------|-----r--r-----|----------
D------e--e-----|-----------------|-----e--e-----|----------
A------s--s-----|-----3--1--------|-----s--s-----|----------
E---3--t--t--1--|--3--------3--1--|--3--t--t--1--|----------


q q q q q q q q q q q e e
G------r--r-----|-----r--r-----|-----------------|----------
D------e--e-----|-----e--e-----|-----------------|----------
A------s--s-----|-----s--s-----|-----3--1--------|----------
E---3--t--t--1--|--3--t--t--1--|--3--------3--1--|----------


q q q q e q Q q e q Q q
G------r--r-----|--------------|--------------|-------------
D------e--e-----|--------------|--------------|-------------
A------s--s-----|--------------|--------------|-------------
E---3--t--t--1--|--3--3--3--1--|--3--3--3--1--|-------------


q q q e e e q Q q e q Q q
G------------------|--------------|--------------|----------
D------------------|--------------|--------------|----------
A------3--1--------|--------------|--------------|----------
E---3--------3--1--|--3--3--3--1--|--3--3--3--1--|----------


e q Q q q q q e e q H
G---------------|-----------------|-------------------------
D---------------|-----------------|-------------------------
A---------------|-----3--1--------|-----1-------------------
E---3--3--3--1--|--3--------3--1--|--3----------------------


e e e e q e q q q q e 3x
G---||------------------------|---------------||------------
D---||*-----------------------|--------------*||------------
A---||*--3--1--3--1--3--1--3--|--------------*||------------
E---||------------------------|--0--1--2--3---||------------


h h e q e q e q e q q q
G---------|--5--5--5--3--5-----|--------------|-------------
D---------|-----------------5--|-----3--1-----|-------------
A---1-----|--------------------|--3--------1--|-------------
E------1--|--------------------|--------------|-------------


q q q q q q q q Q Q e q
G------r--r--r--|-----r--r--r--r--||---------------|--------
D------e--e--e--|-----e--e--e--e--||*--5--3-----5--|--------
A---3--s--s--s--|-----s--s--s--s--||*--------5-----|--------
E------t--t--t--|-----t--t--t--t--||---------------|--------


h e e q 23x 3:38 h e e e e
G----------------||--||------------------------|------------
D---5--------3--*||--||*--------5--3--5--3--5--|------------
A------3--5-----*||--||*-----------------------|------------
E----------------||--||------------------------|------------


h e e q 8x 3:56 q e e e Q w
G----------------||-----------------------|-----|-----------
D---5--------3--*||--------5--5--3--------|-----|-----------
A------3--5-----*||-----------------5--3--|--5--|-----------
E----------------||-----------------------|-----|-----------


e e e e e e e e w e e e e q q
G---------------------------|-----|--r-----------------|----
D---------------------------|-----|--e-----3--5--7--7--|----
A---5--------3--5--------3--|--5--|--s--5--------------|----
E------3--5--------3--5-----|-----|--t-----------------|----


Q Q q q q q q q q Q Q q
G------------|-----2--------------|-----------|-------------
D------------|--------5--3--5--3--|-----------|-------------
A---5--3--5--|--5-----------------|--5--3--5--|-------------
E------------|--------------------|-----------|-------------


q q q q Q Q Q Q q q Q Q Q
G------r--r--r--|-----------|-----------|-----------|-------
D------e--e--e--|-----------|-----------|-----------|-------
A---5--s--s--s--|--5--3--5--|--3--5--3--|--5--3--5--|-------
E------t--t--t--|-----------|-----------|-----------|-------


Q q q e e e e e e e e
G------------|--------------------------|-------------------
D------------|--------------------------|-------------------
A---3--5--3--|--5--5--5--6--6--6--7--7--|-------------------
E------------|--------------------------|-------------------


e e e e q q e e e e e e e e
G----------------------|--------------------------|---------
D----------------------|--------------------------|---------
A---7--8--8--8--9--10--|--5--5--5--6--6--6--7--7--|---------
E----------------------|--------------------------|---------


e e e e q q e e e e e e e e
G----------------------|--------------------------|---------
D----------------------|--------------------------|---------
A---7--8--8--8--9--10--|--5--5--5--6--6--6--7--7--|---------
E----------------------|--------------------------|---------


e e e e q q
G----------------------|-
D----------------------|-
A---7--8--8--8--9--10--|-
E----------------------|-

4:21

q q q q q q q q q q q q
G---r--r--r-----|-----r--r-----|-----r--r-----|-------------
D---e--e--e-----|-----e--e-----|-----e--e-----|-------------
A---s--s--s-----|-----s--s-----|-----s--s-----|-------------
E---t--t--t--1--|--3--t--t--1--|--3--t--t--1--|-------------


q q q e e q q q q q q q q
G------------------|-----r--r-----|-----r--r-----|----------
D------------------|-----e--e-----|-----e--e-----|----------
A------3--1--------|-----s--s-----|-----s--s-----|----------
E---3--------3--1--|--3--t--t--1--|--3--t--t--1--|----------


q q q q q q q e e q q q q
G------r--r-----|-----------------|-----r--r-----|----------
D------e--e-----|-----------------|-----e--e-----|----------
A------s--s-----|-----3--1--------|-----s--s-----|----------
E---3--t--t--1--|--3--------3--1--|--3--t--t--1--|----------


e q Q q e q Q q q q q e e
G---------------|--------------|-----------------|----------
D---------------|--------------|-----------------|----------
A---------------|--------------|-----3--1--------|----------
E---3--3--3--1--|--3--3--3--1--|--3--------3--1--|----------


e q Q q e q Q q e q Q q
G---------------|--------------|--------------|-------------
D---------------|--------------|--------------|-------------
A---------------|--------------|--------------|-------------
E---3--3--3--1--|--3--3--3--1--|--3--3--3--1--|-------------


q q q e e q H e e e e q e q
G------------------|--------||------------------------|-----
D------------------|--------||*-----------------------|-----
A------3--1--------|-----1--||*--3--1--3--1--3--1--3--|-----
E---3--------3--1--|--3-----||------------------------|-----


q q q e 3x h h w q q q q
G----------------||--------|-----|--r--r--r--r--------------
D---------------*||--------|--5--|--e--e--e--e--------------
A---------------*||--1-----|-----|--s--s--s--s--------------
E---0--1--2--3---||-----1--|-----|--t--t--t--t--------------


e e e e q e q q q q e 3x
G---||------------------------|---------------||------------
D---||*-----------------------|--------------*||------------
A---||*--3--1--3--1--3--1--3--|--------------*||------------
E---||------------------------|--0--1--2--3---||------------


h h q q q q e e e e q e q
G---------|-----r--r--r--||------------------------|--------
D---------|-----e--e--e--||*-----------------------|--------
A---1-----|-----s--s--s--||*--3--1--3--1--3--1--3--|--------
E------1--|--3--t--t--t--||------------------------|--------


q q q e 3x h h q q q q
G----------------||--------|-----r--r--r--|-----------------
D---------------*||--------|-----e--e--e--|-----------------
A---------------*||--1-----|-----s--s--s--|-----------------
E---0--1--2--3---||-----1--|--3--t--t--t--|-----------------


q q q q q q q q q q q q w
G------r--r--r--|-----r--r--r--|-----r--r--r--|-----||------
D------e--e--e--|-----e--e--e--|-----e--e--e--|-----||------
A------s--s--s--|-----s--s--s--|-----s--s--s--|-----||------
E---3--t--t--t--|--3--t--t--t--|--3--t--t--t--|--3--||------

OptimusPrime

Toegevoegd door OptimusPrime op do 14 aug, 2003 4:36 pm

Auteur: Ian Gillan, Ian Paice, Jon Lord, Ritchie Blackmore, Roger Glover, Deep Purple
Componist: ?
Uitgever: EMI Records Ltd
Uitgegeven in: 2001
Taal: Engels

Reacties

CommonCrawl [Bot]

Volg Muzikum