Deep Purple

Deep Purple
Space Truckin (Bass tab)

Deep Purple
Space Truckin'
(Blackmore/Gillan/Glover/Lord/Paice)
>From "Machine Head"
Tabbed by Serena Di Iulio


e e q e e e e e e q q q
G-------------||------------r--r-----r-----|--r-----r--r--r--|--------
D---4:--------||*-----------e--e-----e-----|--e-----e--e--e--|--------
A---4:--------||*-----------s--s--5--s--3--|--s-----s--s--s--|--------
E-------------||------3--5--t--t-----t-----|--t--5--t--t--t--|--------


h h e e q q q 4x e e e e e e e e
G---------|--------r--r--r---||--||---r-----r-----r-----r-----|-------
D---------|--------e--e--e--*||--||*--e-----e-----e-----e-----|-------
A---3--5--|--------s--s--s--*||--||*--s-----s-----s-----s-----|-------
E---------|--3--5--t--t--t---||--||---t--5--t--5--t--5--t--5--|-------


e e e e e e e e e e e e e e e e
G---r-----r-----r-----r-----|--r-----r-----r-----r-----|--------------
D---e-----e-----e-----e-----|--e-----e-----e-----e-----|--------------
A---s-----s-----s-----s-----|--s--3--s--3--s--5--s--5--|--------------
E---t--5--t--5--t--5--t--5--|--t-----t-----t-----t-----|--------------


e e e e e e e e 2x Q q q e
G---r-----r-----r-----r------||--------------|------------------------
D---e-----e-----e-----e-----*||-----4--5--7--|------------------------
A---s-----s-----s-----s-----*||--5-----------|------------------------
E---t--5--t--5--t--5--t--5---||--------------|------------------------


q e q e e e Q q q e q q q q w
G---------------------|--------------|--9--9--9--9--|--9--------------
D------7--5-----------|-----4--5--7--|--------------|-----------------
A------------7--5-----|--5-----------|--------------|-----------------
E---5--------------8--|--------------|--------------|-----------------


e e e q e e e 4x e e e q e e e 3x
G---||-------------------------||--||-------------------------||------
D---||*-----------------------*||--||*-----------------------*||------
A---||*-----7--6--5-----------*||--||*-----2--1--0-----------*||------
E---||---5-----------8--7--6---||--||---0-----------3--2--1---||------


q q q q e e e e e e e e
G---------------||---r-----r-----r-----r-----|------------------------
D---------------||*--e-----e-----e-----e-----|------------------------
A---------------||*--s-----s-----s-----s-----|------------------------
E---0--1--2--3--||---t--5--t--5--t--5--t--5--|------------------------


e e e e e e e e e e e e e e e e
G---r-----r-----r-----r-----|--r-----r-----r-----r-----|--------------
D---e-----e-----e-----e-----|--e-----e-----e-----e-----|--------------
A---s-----s-----s-----s-----|--s--3--s--3--s--5--s--5--|--------------
E---t--5--t--5--t--5--t--5--|--t-----t-----t-----t-----|--------------


e e e e e e e e 2x Q q q e
G---r-----r-----r-----r------||--------------|------------------------
D---e-----e-----e-----e-----*||-----4--5--7--|------------------------
A---s-----s-----s-----s-----*||--5-----------|------------------------
E---t--5--t--5--t--5--t--5---||--------------|------------------------


q e q e e e Q q q e q q e e e q
G---------------------|--------------|--9--9--7-----------|-----------
D------7--5-----------|-----4--5--7--|-----------9--7--5--|-----------
A---------------3--4--|--5-----------|--------------------|-----------
E---5--------5--------|--------------|--------------------|-----------


e e q e e e e e e q e e e 4x
G---------------------||-------------------------||-------------------
D---------------------||*-----------------------*||-------------------
A---7--5-----5--6--7--||*-----7--6--5-----------*||-------------------
E---------7-----------||---5-----------8--7--6---||-------------------


e e e q e e e 3x q q q q
G---||-------------------------||-------------------------------------
D---||*-----------------------*||-------------------------------------
A---||*-----2--1--0-----------*||-------------------------------------
E---||---0-----------3--2--1---||--0--1--2--3-------------------------


e e q e e e e e e q q q h h
G---||------------r--r-----r-----|--r-----r--r--r--|--------|---------
D---||*-----------e--e-----e-----|--e-----e--e--e--|--------|---------
A---||*-----------s--s--5--s--3--|--s-----s--s--s--|--3--5--|---------
E---||------3--5--t--t-----t-----|--t--5--t--t--t--|--------|---------


e e q q q 3x e e q e e e e e e q q q
G---------r--r--r---||--------r--r-----r-----|--r-----r--r--r--|------
D---------e--e--e--*||--------e--e-----e-----|--e-----e--e--e--|------
A---------s--s--s--*||--------s--s--5--s--3--|--s-----s--s--s--|------
E---3--5--t--t--t---||--3--5--t--t-----t-----|--t--5--t--t--t--|------


h h e e e e e e e e 3x e e e e e e e e
G---------||----------------------------||----------------------------
D---------||*--------------------------*||----------------------------
A---3--5--||*--7--7--7--7--7--7--7--7--*||--7--5--------------5--7----
E---------||----------------------------||--------7--6--5--8----------


e e e q e e e 4x e e e q e e e 3x
G---||-------------------------||--||-------------------------||------
D---||*-----------------------*||--||*-----------------------*||------
A---||*-----7--6--5-----------*||--||*-----2--1--0-----------*||------
E---||---5-----------8--7--6---||--||---0-----------3--2--1---||------


q q q q q q e q e 24x
G---------------||---r--r--r---------||-------------------------------
D---------------||*--e--e--e--------*||-------------------------------
A---------------||*--s--s--s--------*||-------------------------------
E---0--1--2--3--||---t--t--t--3--5---||-------------------------------


e e e q e e e 4x e e e q e e e 3x
G---||-------------------------||--||-------------------------||------
D---||*-----------------------*||--||*-----------------------*||------
A---||*-----7--6--5-----------*||--||*-----2--1--0-----------*||------
E---||---5-----------8--7--6---||--||---0-----------3--2--1---||------


q q q q e e e q e e e 4x
G---------------||-------------------------||-------------------------
D---------------||*-----------------------*||-------------------------
A---------------||*-----7--6--5-----------*||-------------------------
E---0--1--2--3--||---5-----------8--7--6---||-------------------------


e e e q e e e 3x q q q q
G---||-------------------------||-------------------------------------
D---||*-----------------------*||-------------------------------------
A---||*-----2--1--0-----------*||-------------------------------------
E---||---0-----------3--2--1---||--0--1--2--3-------------------------


e e e q e e e 4x e e e q e e e 3x
G---||-------------------------||--||-------------------------||------
D---||*-----------------------*||--||*-----------------------*||------
A---||*-----7--6--5-----------*||--||*-----2--1--0-----------*||------
E---||---5-----------8--7--6---||--||---0-----------3--2--1---||------


q q q q
G---------------||----------------------------------------------------
D---------------||----------------------------------------------------
A---------------||----------------------------------------------------
E---0--1--2--3--||----------------------------------------------------


======================================================================
== TABLATURE EXPLANATION ==
======================================================================

---------- ---------- ----t---
----5h8--- Hammeron ----(8)--- Ghost ----6--- Tap
---------- ---------- Note --------
----5p8--- Pulloff ---------- --------

---------- ---------- -----p--
----5/8--- Slide Up -----x---- Dead -----7-- Pop
---------- ---------- Note --s-----
----5\8--- Slide Down ---------- --5----- Slap

---------- ||------|| Repeat --------
----5~~~-- Vibrato ||*----*|| ---5^--- Bend
---------- ||*----*|| --------
---------- ||------|| --------

---------- ---------- --------
-4:------- Time ---------- --------
-4:------- Signature ---------- --------
---------- ---------- --------

Rhythm:
w = whole note W = dotted whole
h = half note H = dotted half
q = quarter note Q = dotted quarter
e = eighth note E = dotted eighth
s = sixteenth note S = dotted sixteenth
t = 32nd note T = dotted 32nd
x = 64th note X = dotted 64th
^ = triplet

======================================================================
== Created with BUCKET O' TAB for Windows ==
== For more info email gse@his.com ==
======================================================================

OptimusPrime

Toegevoegd door OptimusPrime op do 14 aug, 2003 4:36 pm

Auteur: Ian Gillan, Ian Paice, Jon Lord, Ritchie Blackmore, Roger Glover
Componist: ?
Uitgever: Edel Germany GmbH
Uitgegeven in: 2018
Taal: Engels

Reacties

CommonCrawl [Bot]

Volg Muzikum