Deep Purple

Deep Purple
Space Truckin' (Bass tab)

Deep Purple - Space Truckin'
(standard tuning EADG; common time 4/4; 129bpm)

corrected and completed by Konni (kaczmarek@redseven.de)
http://people.freenet.de/ace-of-bass


G|-----------|-----|------|--(4x)|-----------|----------|----------|-------(2x)|
D|*----------|-----|------|-----*|*----------|----------|----------|----------*|
A|*------5-3-|-----|-3--5-|-----*|*----------|----------|--3-3-5-5-|----------*|
E|--35-------|--5--|------|-35---|---5-5-5-5-|--5-5-5-5-|----------|--5-5-5-5--|
1+ 3+4+ 1+ 1 3 1+ 1+2+3+4+ 1+2+3+4+ 1+2+3+4+ 1+2+3+4+

G|----------|----------|--------2-|----------|----------|
D|----4-5-7-|---75-----|----4-5---|-2222220--|-2222222--|
A|-5--------|------753-|-5--------|--------3-|--------3-|
E|----------|-5--------|----------|----------|----------|
1 2+3+4+ 1 2+ +4+ 1 2+3+4+ 1+2+3+4+ 1+2+3+4+

G|-------(4x)|------(3x)|------|
D|*--210-----|----------|------|
A|*-0----321-|--210-----|------|
E|-----------|-0----321-|-0123-|
1+2+ +4+ 1+2+ +4+ 1234

G|-----------|----------|----------|-------(2x)|
D|*----------|----------|----------|----------*|
A|*----------|----------|--3-3-5-5-|----------*|
E|---5-5-5-5-|--5-5-5-5-|----------|--5-5-5-5--|
1+2+3+4+ 1+2+3+4+ 1+2+3+4+ 1+2+3+4+

G|----------|----------|----------|---9-7----|--------4-|
D|----4-5-7-|---75-----|----4-5-7-|------975-|------57--|
A|-5--------|-------34-|-5--------|-7--------|--757-----|
E|----------|-5----5---|----------|----------|----------|
1 2+3+4+ 1 2+ +4+ 1 2+3+4+ 1 2 3+4+ 1+2+ +4+

G|-------(4x)|------(3x)|------|
D|*--210-----|----------|------|
A|*-0----321-|--210-----|------|
E|-----------|-0----321-|-0123-|
1+2+ +4+ 1+2+ +4+ 1234

G|-----------|-----|------|--(3x)|----------|-----|------|------------|--------9-|--7-------|
D|*----------|-----|------|-----*|----------|-----|------|*----------*|----------|---975----|
A|*------5-3-|-----|-3--5-|-----*|------5-3-|-----|-3--5-|*-77777777-*|-7777777--|------75--|
E|--35-------|--5--|------|-35---|-35-------|--5--|------|------------|----------|--------7-|
1+ 3+4+ 1+ 1 3 1+ 1+ 3+4+ 1+ 1 3 1+2+3+4+ 1+2+3+4+ 1+2+3+4+

G|-------(4x)|------(3x)|------|-------(24x)|
D|*--210-----|----------|------|*----------*|
A|*-0----321-|--210-----|------|*----------*|
E|-----------|-0----321-|-0123-|-------3-5--|
1+2+ +4+ 1+2+ +4+ 1234 1 2 3+4+

G|--------(3x)|--------9-|---9999789--|-9977-----|----------|
D|*----------*|----------|*----------*|-----9977-|-55-------|
A|*-77777-56-*|-7777777--|*----------*|----------|---7755---|
E|-------8----|----------|------------|----------|-------77-|
1+2+3+4+ 1+2+3+4+ 1+2+3+4+ 1+2+3+4+ 1+2+3+4+

G|-------(4x)|------(3x)|------|
D|*--210-----|----------|------|
A|*-0----321-|--210-----|------| repeat to
E|-----------|-0----321-|-0123-| fade out
1+2+ +4+ 1+2+ +4+ 1234

OptimusPrime

Toegevoegd door OptimusPrime op do 14 aug, 2003 4:36 pm

Auteur: Ian Gillan, Ian Paice, Jon Lord, Ritchie Blackmore, Roger Glover
Componist: ?
Uitgever: Edel Germany GmbH
Uitgegeven in: 2018
Taal: Engels

Reacties

CommonCrawl [Bot]

Volg Muzikum