Deep Purple

Deep Purple
Smoke On The Water Solo Ver 2 (Guitar tab)

E|-----------------------------------------------------------------------------------
B|-----------------r13-11----11b12-----------------------------------------------
G|---------12~~~~~------------12-----------------12-15b17-15-14-12-14-12h14p12p10-12-
D|---12-15---------------------------------12-15-------------------------------------
A|-----------------------------------------------------------------------------------
E|-----------------------------------------------------------------------------------

E|------------------------------------8-----------8-------------------------------
B|----------------------8-11-13-11-13---8-11----8---11-10-8-----------------------
G|--10-8-10-10-12-11-12----------------------10-------------11-10-8----10-8-7-5---
D|------------------------------------------------------------------10------------
A|--------------------------------------------------------------------------------

E|-------------------------------------------------------------3---3-3-------------
B|-----------------------------------------------------------3---6-----6-5-3-------
G|-----------------5-----8--7--5--3b5r3--5-3-2-3-2-3-2-0---5-----------------6-5-3-
D|----8-7-5--8--7-----8------------------------------------------------------------
A|---------------------------------------------------------------------------------
E|---------------------------------------------------------------------------------

OptimusPrime

Toegevoegd door OptimusPrime op do 14 aug, 2003 4:36 pm

Auteur: ?
Componist: ?
Uitgever: ?

Reacties

CommonCrawl [Bot]

Volg Muzikum