Deep Purple

Deep Purple
Solider Of Fortune (Guitar tab)

Soldier of fortune


Deep purple
Blackmore
Acoustic gutiar
Have fun



E||-----------3--5--6/-10----|--8h10h8-6--5h6h5----5--------|
B||--------3-----------------|------------------8-----------|
G||-----3--------------------|------------------------------|
D||--5-----------------------|------------------------------|
A||--------------------------|------------------------------|
E||--------------------------|------------------------------|



--8---6h8h6h5----------------|--6h5-----------------|-----------3--------------|
--8-----------8----5--8------|------8---------------|--------3-----3-----------|
--9--------------------------|-------------7--------|-----3-----------3-----3--|
--10-------------------------|----------------------|--5-----------------5-----|
-----------------------------|----------------------|--------------------------|
-----------------------------|----------------------|--------------------------|



--------------5-----------|-----------3--------------|
-----------6-----6--------|--------3-----3-----------|
--------5-----------5-----|-----3-----------3--------|
-----7-----------------7--|--5-----------------5-----|
--8-----------------------|-----------------------5--|
--------------------------|--------------------------|



-----------0--1-----------|--------------3-----------|
--------3--------3--------|-----------------3--------|
-----2--------------2-----|-----------3--------3-----|
--0--------------------0--|--------5--------------5--|
--------------------------|-----5--------------------|
--------------------------|--3-----------------------|



--------------1-----------|--------------3-----------|-----------0--1----------|
-----------------1--------|-----------------3--------|--------3----------------|
-----------2--------2-----|-----------3--------3-----|-----2-------------------|
--------3--------------3--|--5-----5--------------5--|--0----------------0-----|
-----3--------------------|-----5--------------------|----------------------3--|
--1-----------------------|--------------------------|-------------------------|



--------------------------|-----------3--------------|
--------------------------|--------3-----3-----------|
--------3-----------5-----|-----3-----------3-----3--|
-----3-----3-----5-----5--|--5-----------------5-----|
--1-----------3-----------|--------------------------|
--------------------------|--------------------------|



--------------------------|--------------------------|
-----------4--------1--1--|--3--------3--------3-----|
--------3--------2--------|--------3--------2-----2--|
-----5--------3-----------|-----3--------0-----------|
--6-----------------------|--------------------------|
--------------------------|--------------------------|



-----------3-----------5--|-----------6--|--------------3---------|
--------3-----------6-----|--------6-----|--------4---------------|
-----3-----------5--------|-----7--------|-----------3------------|
--5-----------7-----------|--8-----------|-----5------------------|
--------------------------|--------------|--6----------------5----|
--------------------------|--------------|------------------------|



--------------------------|--------------3--------|--------------3-----------|
-----------4--------3-----|-----------3-----------|-----------3-----3--------|
--------5--------2-----2--|--------3--------------|--------3-----------3-----|
-----5--------0-----------|-----5-----------------|-----5-----------------5--|
--3-----------------------|-----------------------|--------------------------|
--------------------------|--3--------------------|--3-----------------------|



--------------------------|--------------------------|-------------------------|
--------------------------|--------------3-----------|-------------------------|
--------5-----5-----5-----|-----------3-----3--------|--------5-----5-----5----|
-----5-----5-----5-----5--|--------5-----------5-----|-----5-----5-----5-------|
--3-----------------------|-----5-----------------5--|--3----------------------|
--------------------------|--3-----------------------|-------------------------|



--------------3-----------|--------------------------|
-----------3-----3--------|--------------------3-----|
--------3-----------3-----|--------3-----3--------3--|
-----5-----------------5--|-----3-----3-----3--------|
--------------------------|--1-----------------------|
--3-----------------------|--------------------------|



--------------------------|--------------3-----------|
--------------5-----------|-----------3-----3--3-----|
--------5-----------5-----|--------3--------------3--|
-----5-----5-----5-----5--|-----5--------------------|
--3-----------------------|--------------------------|
--------------------------|--3-----------------------|



--------------3-----------|--------------5-----------|
-----------3-----3--------|-----------6-----6--------|
--------3-----------3-----|--------5-----------5-----|
-----5-----------------5--|-----7-----------------7--|
--3-----------------------|--8-----------------------|
--------------------------|--------------------------|



--------------3-----------|--------------1-----------|
-----------------3--------|--------3--------3--------|
-----------3--------3-----|-----2-----2--------2-----|
--------5--------------5--|--0--------------------0--|
-----5--------------------|--------------------------|
--3-----------------------|--------------------------|



--------------------------|--------------1-----------|
--------------3-----------|-----------------1--------|
-----------3-----3--------|-----------2--------2-----|
--------5-----------5-----|--------3--------------3--|
-----5-----------------5--|-----3--------------------|
--3-----------------------|--1-----------------------|



--------------------------|--------------1-----------|
--------------3-----------|--------3--------3--------|
-----------3-----3--------|-----2-----2--------------|
--------5-----------5-----|--0-----------------0-----|
-----5-----------------5--|-----------------------3--|
--3-----------------------|--------------------------|



--------------------------|-----------3--3-----------|-------------------------|
--------------------------|--------3--------3--------|--------------------1----|
--------3-----------5-----|-----3--------------------|--------3--------2-------|
-----3-----3-----5-----5--|--5-----------------5-----|-----5-----5--3----------|
--1-----------3-----------|-----------------------3--|--6----------------------|
--------------------------|--------------------------|-------------------------|



--------------------------|-----------3-----------1--|--------------|
-----------3--------3-----|--------3--------1--------|-----3--------|
--------3--------2-----2--|-----3--------------2-----|--3--------3--|
-----3--------0-----------|--5-----------3-----------|--------3-----|
--1-----------------------|--------------------------|--------------|
--------------------------|--------------------------|--------------|



--------------3---------|-------------------------|--------------3-----------|
--------4---------------|-------------------3-----|-----------3-----3--------|
-----------3------------|--------5-------2-----2--|--------3-----------3-----|
-----5------------------|-----5-------0-----------|-----5-----------------5--|
--6----------------5----|--3----------------------|--------------------------|
------------------------|-------------------------|--3-----------------------|



--------3-----------1-----|--------------|--------------3---------|
-----------3-----------1--|-----------3--|--------4---------------|
-----3-----------2--------|--------3-----|-----------3------------|
--5-----------3-----------|-----3--------|-----5------------------|
--------------------------|--1-----------|--6----------------5----|
--------------------------|--------------|------------------------|



-------------------------|-------------------|--3--------1--------|
-------------------3-----|-------------------|--4--------3--------|
--------5-------2-----2--|-------------------|--3--------2--------|
-----5-------0-----------|-------------------|--5--------0--------|
--3----------------------|-------------------|--6-----------------|
-------------------------|--3----------------|--------------------|



--3--------5--------|------------------||
--3-----------------|------------------||
--4-----------------|------------------||
--5-----------------|------------------||
--5-----------------|------------------||
--3-----------------|------------------||

OptimusPrime

Toegevoegd door OptimusPrime op do 14 aug, 2003 4:36 pm

Auteur: ?
Componist: ?
Uitgever: ?
Taal: Engels

Reacties

CommonCrawl [Bot]

Volg Muzikum