Deep Purple

Deep Purple
Soldier Of Fortune (Bass tab)

Song: Soldier of fortune
Artist: Deep Purple

Intro
|------------------|
|---====---|
|------------------|
|------------------|

Bass enter
|--------|
|--------|
|--5--3--|
|--------|

Verse 1
|-------------------------------------------------|
|-----------------------1----3--------------------|
|--1----3--------------------------1----5---------|
|------------3----3--1-----------------------3----|

|-------------------------------------|
|------------1------------------------|
|-------1---------5----3----5---------|
|--1-----------------------------3----|

Solo
|-----------------------|
|-----------------------|
|-------3---------3-----|
|--3---------3----------|
|-----------------------|
|-----------------------|
|-------1-----3---------|
|--3---------------3----|

Verse 2
|-----------------------|
|-----------------------|
|-----------------------| x2
|--3----1----3----1-----|

|-------------------------------------------------------|
|-----------------------------1----3--------------------|
|--5--3--1----3--------------------------1----5---------|
|------------------3----3--1-----------------------3----|

|-------------------------------------|
|------------1------------------------|
|-------1---------5----3----5---------|
|--1-----------------------------3----|

Outro
|------------3-------------------------------|
|--1----3---------1-----1--------------------|
|--------------------------5--3----5---------|
|---------------------------------------3----|


|-----------------|
|--1----3---------|
|-----------------|
|------------3----|

OptimusPrime

Toegevoegd door OptimusPrime op do 14 aug, 2003 4:36 pm

Auteur: David Coverdale, Ritchie Blackmore
Componist: ?
Uitgever: Parlophone Records Ltd.
Uitgegeven in: 2013
Taal: Engels

Reacties

CommonCrawl [Bot]

Volg Muzikum