Deep Purple

Deep Purple
Smooke On The Water (Guitar tab)

***THIS SONG WAS MADE BY THE AUTHOR AND NOT ME, GIVE CREDIT TO THE AUTHOR***

Band: Deep Purple
Song: Smoke on the water
Tabbed by: IWantACheeseburgerPlease

Drop D

|----------------------------|
|----------------------------|
|----------------------------|
|----------------------------|
|----------------------------|
|-0-3-5--0-3-6-5--0-3-5-3-0-0|

|----------------------------|
|----------------------------|
|----------------------------|
|----------------------------|
|----------------------------|
|-0-3-5--0-3-6-5--0-3-5-3-0-0|

|----------------------------|
|----------------------------|
|----------------------------|
|----------------------------|
|----------------------------|
|-0-3-5--0-3-6-5--0-3-5-3-0-0|

|----------------------------|
|----------------------------|
|----------------------------|
|----------------------------|
|----------------------------|
|-0-3-5--0-3-6-5--0-3-5-3-0-0|

And so on...

OptimusPrime

Toegevoegd door OptimusPrime op do 14 aug, 2003 4:36 pm

Auteur: ?
Componist: ?
Uitgever: ?
Taal: Engels

Reacties

CommonCrawl [Bot]

Volg Muzikum