Deep Purple

Deep Purple
Smoke On The Water Ver 4 (Bass tab)

Deep Purple-“Smoke On The Water”
This tab is almost perfect. I play this song all the time.


2x
G-0--3--5--0--3--6\-5------0--3--5--3----0--------------------
D---------------------------------------------------------------------
A---------------------------------------------------------------------
E---------------------------------------------------------------------


G-0--3--5--0--3--6\-5------0--3--5--3---0--0-----------------
D----------------------------------------------------2-3-4----------
A---------------------------------------------------------------------
E---------------------------------------------------------------------


G-00000000-00000000-0000-5---3--0--0------------------
D---------------------------------------------------2-3-4-----------
A---------------------------------------------------------------------
E---------------------------------------------------------------------


G-00----00----00----00----0--0---------0--0--0--3-------------
D--------------------------------0----3--3---3----------0-----------
A---------------------------------------3-----------------------------
E----------------------------------------------------------------------


G----------------1-------------0--3030-0--03030----------------
D-----------------------------------------3-------------3-------------
A-3--------------------------------------------------------------------
E---------------------------------------------------------------------

G----------------1-------------
D-------------------------------
A-3----------------------------
E------------------------------


G-0--3--5--0--3--6\-5------0--3--5--------3-0-----------------------
D---------------------------------------------------------------------
A---------------------------------------------------------------------
E---------------------------------------------------------------------

OptimusPrime

Toegevoegd door OptimusPrime op do 14 aug, 2003 4:36 pm

Auteur: ?
Componist: ?
Uitgever: ?
Taal: Engels

Reacties

CommonCrawl [Bot]

Volg Muzikum