Deep Purple

Deep Purple
Smoke On The Water Complete (Bass tab)

Band - Deep Purple
Song - Smoke On The Water

Normal Tuning.

Intro:
|-----------| |-------------|
|*---------*| |-------------|
|*-r-r-r-r-*| |-------------|
|-----------|(several times)|-------0-1-2-|


Riff 1:
|-----------------|-----------------|-----------------|
|-----------------|-----------------|-----------------|
|-----------------|-----------------|---------3-3-3-1-|
|-3-3-3-3-3-3-3-3-|-3-3-3-3-3-3-3-3-|-3-3-3-3---------|


|-----------------|
|-----------------|
|-----------------|
|-3-3-3-3-3-3-1-2-|


Riff 2:
|-----------------|-----------------|-----------------|
|-----------------|-----------------|-----------------|
|-----------------|-----------------|---------3-3-3-1-|
|-3-3-3-3-3-3-3-3-|-3-3-3-3-3-3-3-3-|-3-3-3-3---------|


|-------------------|
|---------5-3-------|
|-1-------------5-4-|
|---3-3-3-----------|


Verse:
|-------------|---------------|---------------|------------------|
|-----5-----5-|-----5---------|-----5-3-------|---------5-5------|
|---5-----5---|---5---1-1-3-5-|---5-----3-----|---1-3-5----5-3-1-|
|-3-----3-----|-3-------------|-3---------1-3-|-3----------------|


|-------------|---------------|-------------|-----------------|
|-----5-----5-|-----5---5---5-|-----5-3-----|-----------------|
|---5-----5---|---5---5---5---|---5-----3---|---5-4-3-1-------|
|-3-----3-----|-3-------------|-3---------1-|-3---------3-1-2-|


|-------------|-----------------|---------------|---------------|
|-----5-----5-|---5-3-----------|-----5-3-------|---5-3---------|
|---5-----5---|-------5-3-1-----|---5-----3-----|-------5-3---3-|
|-3-----3-----|-3-----------3-1-|-3---------1-1-|-3---------3---|


|-------------|-----------------|-------------|-----------------|
|-----5-----5-|---5-----3-------|-----5-3-----|-----5-3---------|
|---5-----5---|-----3-5---5-3-5-|---5-----3---|---------5-3-----|
|-3-----3-----|-3---------------|-3---------1-|-3-3---------3-1-|


Chorus:
|---------|---------|-----------------|---------------|
|---------|---------|-----------------|---------------|
|-3-------|---------|-----1---1-------|-----1---1-----|
|---------|-4-------|-3-3---3---3-1-3-|-3-3---3---3-1-|


|---------|---------|
|---------|---------|
|-3-------|---------|
|---------|-4-------|


Solo:
|------------------|-----------------|-----------------|
|*---------5-3-----|-----------------|---1-3-5-3-1-----|
|*---1-3-5-----5-3-|-1---------1-3-5-|-3-----------3-1-|
|--3---------------|---3-1-2-3-------|-----------------|

|------------------|
|---5-3---------3-*|
|-------5-1-3-5---*|(x4)
|-3----------------| (is hard but kicks ass)


|---------|---------|---------|-------------| (there are a couple of versions of the song,
|---------|---------|---------|-------------| if yours does not have the extended solo,
|-3-------|---------|---------|-------------| just play the last bit opposite. Otherwise
|---------|---------|-1-------|-------0-1-2-| play it all, inc the cool bass bit above)


Outro:
|---------------------------------------------------------|
|---------------------------------------------------------|
|-----5-5-----5-5-----5-5-----5-5-----5-5-----5-5-----5-5-|
|-3-3-----3-3-----3-3-----3-3-----3-3-----3-3-----3-3-----|

Tabbed By Dan Bowden
deadbattery27@hotmail.com
www.jumplead1.8m.com

OptimusPrime

Toegevoegd door OptimusPrime op do 14 aug, 2003 4:36 pm

Auteur: ?
Componist: ?
Uitgever: ?
Taal: Engels

Reacties

CommonCrawl [Bot]

Volg Muzikum