Deep Purple

Deep Purple
Since You've Been Gone (Guitar tab)

Band: Rainbow
Song: Since You've Been Gone
Tabbed By: \JEB/,

Intro (X2)
-3-3-3-------------------------3-3-3------------------------------------------
-3-3-3-------------------------3-3-3------------------------------------------
-0-0-0----7--7---9-9-9---5-5---0-0-0---7--9---5--5---7--7---------------------
-5-5-5----7--7---9-9-9---5-5---5-5-5---7--9---5--5---7--7---------------------
-5-5-5----5--5---7-7-7---3-3---5-5-5---5--7---3--3---5--5---------------------
------------------------------------------------------------------------------

Verse
------------------2-----------------0-------------------------------0------3--
---------------------------0------3---------1-------0-------------3-----------
-------0-------2---------0------2---------0-------0-------2-0---2--------0----
-----0-------0----------------0---------2-------0-------2-----0--------0------
---2------------------2---------------3-------2-------0-----------------------
-3--------2---------0-------------------------------------------------3-------


-------2----------------------------------------0-----------------------------
---------------------3----------1-------0--------------3----------------------
-----2-------0-----2---------0----------------2------2------------------------
---0-------2----0----------2--------0-------2-----0---------------------------
------------------------3---------2-------0-----------------------------------
-2-------0--------------------------------------------------------------------

Bridge
---|-|-|-|-------------|-|-|--------------------------------------------------
---|-|-|-|-------------|-|-|--------------------------------------------------
-8-|-|-|-|-----------8-|-|-|--------------------------------------------------
-8-|%|%|%|-----7-----8-|%|%|--------------------------------------------------
-6-|-|-|-|---8----8--6-|-|-|-----------3--4--5--------------------------------
---|-|-|-|-8-----------|-|-|-8--6--5------------------------------------------


Chorus 1 and 2 play as Intro x3

Solo
-------------------------------------------------------------|-|-|------------
-------------------------------------------------------------|-|-|-12---------
-2/4-----5----7--7b---7--5h7p5--4-----4---5--4h5p4--------6b-|-|-|------12----
-------5----5--------------------------------------7---5-----|-|-|------------
-------------------------------------------------------------|-|-|------------
-------------------------------------------------------------|-|-|------------


-------------------------------------------------------------------------13b--
-13--------15-----15b---15--13h15p13---12----12---13---12h13p12---------------
-------12--------------------------------------------------------14--12-------
------------------------------------------------------------------------------
------------------------------------------------------------------------------
------------------------------------------------------------------------------


-|-|-|-|----------------------------------------------------------------------
-|-|-|-|----------------------------------------------------------------------
-|-|-|-|----------------------------------------------------------------------
-|-|-|-|----------------------------------------------------------------------
-|-|-|-|-5--5--5-----5--5-----------------------------------------------------
-|-|-|-|----------------------------------------------------------------------

3rd Chorus
------------------------------------------------------------------------------
-10--10--10-----------------------------------10--10--10----------------------
-9---9---9------9--9----11--11--11-----7--7---9---9---9---9--11-7--7-7-9-9----
-7---7---7------9--9----11--11--11-----7--7---7---7---7---9--11-7--7-7-9-9----
-7---7---7------7--7----9---9---9------5--5---7---7---7---7--9--5--5-5-7-7----
------------------------------------------------------------------------------
|-------------------------repeat-twice-------------------------------------|

------------------------------------------------------------------------------
-10--10--10----------------------------10-10-10--------------------------10---
-9---9---9-----9--9--11-11-11---10-10--9--9--9----9-9--11-11-11---10-10--9----
-7---7---7-----9--9--11-11-11---10-10--7--7--7----9-9--11-11-11---10-10--7----
-7---7---7-----7--7--9--9--9----8--8---7--7--7----7-7--9--9--9----8--8---7----
------------------------------------------------------------------------------


------------------------------------------------------------------------------
-10-10------------------------------------------------------------------------
-9--9----9-9--2---------------------------------------------------------------
-7--7----9-9--2---------------------------------------------------------------
-7--7----7-7--0---------------------------------------------------------------
------------------------------------------------------------------------------

Outro Solo
------------------------------------------------------------------------------
-8br-----5--------------5-------------5-----------------5--5------------------
------7b----7--6-4br--2----4br--2--4b---4brp2p0---2--4b-------4brp2---2-------
--------------------------------------------------------------------4---4-----
------------------------------------------------------------------------------
------------------------------------------------------------------------------


--------------------5---3-----0-----------------------------------------------
--------------------------5---------------------------------------5h7p5-------
-5p2p0---2--4brbrb----------3----2h4p2p0----2-4/6--4---------7--6-------------
-------4----------------------------------4--------------7--------------------
------------------------------------------------------------------------------
------------------------------------------------------------------------------


-------------5------5-----7------------10--12--10p9---------------------------
-5h7p5---5h7----5h7---7h9----7br-5--10---------------10---10-12b-12b-12--10---
-------7------------------------------------------------9---------------------
------------------------------------------------------------------------------
------------------------------------------------------------------------------
------------------------------------------------------------------------------


--------------12---------------------------------------10-------12\10---------
-12-12br--12b----12b--12--10h12p10-----10--10h12p10--------------------12b----
------------------------------------11--------------11----11/13---------------
------------------------------------------------------------------------------
------------------------------------------------------------------------------
------------------------------------------------------------------------------


-12--------------------------9--7--9-7----------------------------------------
----12b--12b--12--10\---6--7------------10------------------------------------
------------------------------------------------------------------------------
------------------------------------------------------------------------------
------------------------------------------------------------------------------
------------------------------------------------------------------------------

OptimusPrime

Toegevoegd door OptimusPrime op do 14 aug, 2003 4:36 pm

Auteur: ?
Componist: ?
Uitgever: ООО "Мега Видео"
Taal: Engels

Reacties

CommonCrawl [Bot]

Volg Muzikum