Deep Purple

Deep Purple
Pictures Of Home Ver 4 (Guitar tab)

Pictures of home by Deep Purple ("Machine Head")

|---------------------------------------------------------------------------------------------------
|--------------------------------------10/12--------------------------------------------------------
|-----------------7-------9/11-9-7---7--------------------------------------------------------------
|-------------7-9---9-7-9----------9----------------------------------------------------------------
|-------5-7-9---------------------------------------------------------------------------------------
|-5/7-----------------------------------------------------------------------------------------------

|--------------------------12/14-14-14-14-12/14-14-14-14-12/14-14-12--------------------------------
|--------------------------------------------------------------------14-13-12-----------------------
|-----------------7-----------------------------------------------------------14-11-----------------
|-------------7-9---9-7-9-----------------------------------------------------------14-12-----------
|-------5-7-9-----------------------------------------------------------------------------14-12-----
|-5/7-------------------------------------------------------------------------------------------14--

Bane Stojkovic

OptimusPrime

Toegevoegd door OptimusPrime op do 14 aug, 2003 4:36 pm

Auteur: ?
Componist: ?
Uitgever: ?
Taal: Engels

Reacties

CommonCrawl [Bot]

Volg Muzikum