Deep Purple

Deep Purple
Perf Strang (Bass tab)

Perfect strangers

by: Marin Veraja
Croatia
as preformed by Deep Purple






G||------------------|------------------|------------------|------------------|
D||------------------|------------------|------------------|------------------|
A||------------------|------------------|------------------|------------------|
E||------------------|------------------|------------------|------------------|



------------------|--------------------------|--------------------------|
------------------|--------------------------|--------------------------|
------------------|--3--5--5--5--5--5--5--5--|--5--5--5--5--5--5--3--5--|
------------------|--------------------------|--------------------------|



--------------------------|--------------------------|
--------------------------|--------------------------|
--------------------------|-----------------------1--|
--1--3--3--3--3--3--3--3--|--3--3--3--3--3--1--3-----|



--------------------------|--------------------------|
--------------------------|--------------------------|
--3--5--5--5--5--5--5--5--|--5--5--5--5--5--5--3--5--|
--------------------------|--------------------------|



--------------------------|--------------------------|
--------------------------|--------------------------|
--------------------------|-----------------------1--|
--1--3--3--3--3--3--3--3--|--3--3--3--1--3--1--3-----|



--------------------------|-----7-------------------|--------------------------|
--------------------------|-------------------------|--------------------------|
--3--5--5--5--5--5--5--5--|--5-------5--5--5--3--5--|--------------------------|
--------------------------|-------------------------|--1--3--3--3--3--3--3--3--|



--------------------------|--------------------------|
--------------------------|--------------------------|
--------------------------|--------------------------|
--3--3--3--3--3--3--1--3--|--3--5--5--5--5--5--5--5--|



--------------------------|--------------------------|
--------------------------|--------------------------|
--------------3-----------|--------------------------|
--5--5--3--5-----5--3--5--|--5--5--5--5--5--5--5--5--|



--------------------------|--------------------------|
--------------------------|--------------------------|
--------------3-----------|--------------------------|
--5--5--3--5-----5--3--5--|--5--5--5--5--5--5--5--5--|



--------------------------|--------------------------|
--------------------------|--------------------------|
--------------3-----------|--------------------------|
--5--5--3--5-----5--3--5--|--5--5--5--5--5--5--5--5--|



--------------------------|--------------------------|
--------------------------|--------------------------|
--------------------------|--3--5--5--5--5--5--5--5--|
--5--3--5--3--5--3--5--3--|--------------------------|



--------------------------|--------------------------|
--------------------------|--------------------------|
--5--5--5--5--5--5--3--5--|--------------------------|
--------------------------|--1--3--3--3--3--3--3--3--|



--------------------------|--------------------------|
--------------------------|--------------------------|
-----------------------1--|--3--5--5--5--5--5--5--5--|
--3--3--3--3--3--1--3-----|--------------------------|



--------------------------|--------------------------|
--------------------------|--------------------------|
--5--5--5--5--5--5--3--5--|--------------------------|
--------------------------|--1--3--3--3--3--3--3--3--|



--------------------------|--------------------------|-----7-------------------|
--------------------------|--------------------------|-------------------------|
-----------------------1--|--3--5--5--5--5--5--5--5--|--5-------5--5--5--3--5--|
--3--3--3--1--3--1--3-----|--------------------------|-------------------------|



--------------------------|--------------------------|
--------------------------|--------------------------|
--------------------------|--------------------------|
--1--3--3--3--3--3--3--3--|--3--3--3--3--3--3--1--3--|



--------------------------|--------------------------|
--------------------------|--------------------------|
--------------------------|--------------3-----------|
--3--5--5--5--5--5--5--5--|--5--5--3--5-----5--3--5--|



--------------------------|--------------------------|
--------------------------|--------------------------|
--------------------------|--------------3-----------|
--5--5--5--5--5--5--5--5--|--5--5--3--5-----5--3--5--|



--------------------------|--------------------------|
--------------------------|--------------------------|
--------------------------|--------------3-----------|
--5--5--5--5--5--5--5--5--|--5--5--3--5-----5--3--5--|



--------------------------|--------------------------|-------------------------|
--------------------------|--------------------------|-------3-----------------|
--------------------------|--------------------------|-------------------0--1--|
--5--5--5--5--5--5--5--5--|--5--5--5--5--5--5--5--5--|--1-------1--1--1--------|



--------------------------|------------------------|--------------------------|
--------------------------|--0----0-----0----------|--------------------------|
--3--3--3-----3-----------|----------0-------0-----|-----------------0--2--3--|
-----------3-----0--1--3--|---------------------1--|--3--3--3--1--3-----------|



--------------------------|-----------------------|-------------------|
--0--0--0-----0-----------|-----------------------|-------------------|
-----------3-----------0--|--3----2----3----2--0--|-------------------|
-----------------1--3-----|-----------------------|--3----------------|



---------------------|----------------------|---------------------|
---------------------|----------------------|---------------------|
---------------------|----------------------|---------------------|
--3--------3--3------|--3--3------3--3------|--3--3------3--------|



-----------------------------|------------------------------------|
-----7-7-7-----8-8-8--5-5-5--|-----7-7-7--3-3-3--7-7-7--5-5-5--5--|
-----------------------------|------------------------------------|
--5---------5----------------|--5---------------------------------|



-----------------------------|------------------------------------|
-----7-7-7-----8-8-8--5-5-5--|-----7-7-7--3-3-3--7-7-7--5-5-5--5--|
-----------------------------|------------------------------------|
--5---------5----------------|--5---------------------------------|



-----------------------------|------------------------------------|
-----7-7-7-----8-8-8--5-5-5--|-----7-7-7--3-3-3--7-7-7--5-5-5--5--|
-----------------------------|------------------------------------|
--5---------5----------------|--5---------------------------------|



-----------------------------|------------------------------|
-----7-7-7-----8-8-8--5-5-5--|-----7-7-7--3-3-3--7-7-7--5-5-|
-----------------------------|------------------------------|
--5---------5----------------|--5---------------------------|



------------------------------------|--------------------------|
--5--3-3-3--2-2-2--0-0-0------------|--------------------------|
--------------------------3-3-3--1--|--3--5--5--5--5--5--5--5--|
------------------------------------|--------------------------|



--------------------------|--------------------------|
--------------------------|--------------------------|
--5--5--5--5--5--5--3--5--|--------------------------|
--------------------------|--1--3--3--3--3--3--3--3--|



--------------------------|--------------------------|
--------------------------|--------------------------|
-----------------------1--|--3--5--5--5--5--5--5--5--|
--3--3--3--3--3--1--3-----|--------------------------|



--------------------------|--------------------------|
--------------------------|--------------------------|
--5--5--5--5--5--5--3--5--|--------------------------|
--------------------------|--1--3--3--3--3--3--3--3--|



--------------------------|--------------------------|-----7-------------------|
--------------------------|--------------------------|-------------------------|
-----------------------1--|--3--5--5--5--5--5--5--5--|--5-------5--5--5--3--5--|
--3--3--3--1--3--1--3-----|--------------------------|-------------------------|



--------------------------|--------------------------|
--------------------------|--------------------------|
--------------------------|--------------------------|
--1--3--3--3--3--3--3--3--|--3--3--3--3--3--3--1--3--|



--------------------------|--------------------------|
--------------------------|--------------------------|
--------------------------|--------------3-----------|
--3--5--5--5--5--5--5--5--|--5--5--3--5-----5--3--5--|



--------------------------|--------------------------|
--------------------------|--------------------------|
--------------------------|--------------3-----------|
--5--5--5--5--5--5--5--5--|--5--5--3--5-----5--3--5--|



--------------------------|--------------------------|
--------------------------|--------------------------|
--------------------------|--------------3-----------|
--5--5--5--5--5--5--5--5--|--5--5--3--5-----5--3--5--|



--------------------------|--------------------------|-------------------------|
--------------------------|--------------------------|-------3-----------------|
--------------------------|--------------------------|-------------------0--1--|
--5--5--5--5--5--5--5--5--|--5--5--5--5--5--5--5--5--|--1-------1--1--1--------|



--------------------------|------------------------|--------------------------|
--------------------------|--0----0-----0----------|--------------------------|
--3--3--3-----3-----------|----------0-------0-----|-----------------0--2--3--|
-----------3-----0--1--3--|---------------------1--|--3--3--3--1--3-----------|



--------------------------|-----------------------|----------------------|
--0--0--0-----0-----------|-----------------------|----------------------|
-----------3-----------0--|--3----2----3----2--0--|----------------------|
-----------------1--3-----|-----------------------|--3--3------3--3------|



----------------------|----------------------|------------------------|
----------------------|----------------------|------------------------|
----------------------|----------------------|------------------------|
--3--3------3--3------|--3--3------3--3------|--3--3------3--3--3--3--|



-----------------------------|------------------------------------|
-----------------------------|------------------------------------|
-----7-7-7-----8-8-8--5-5-5--|-----7-7-7--3-3-3--7-7-7--5-5-5--5--|
--0---------0----------------|--0---------------------------------|



-----------------------------|------------------------------------|
-----------------------------|------------------------------------|
-----7-7-7-----8-8-8--5-5-5--|-----7-7-7--3-3-3--7-7-7--5-5-5--5--|
--0---------0----------------|--0---------------------------------|



-----------------------------|------------------------------------|
-----------------------------|------------------------------------|
-----7-7-7-----8-8-8--5-5-5--|-----7-7-7--3-3-3--7-7-7--5-5-5--5--|
--0---------0----------------|--0---------------------------------|



-----------------------------|------------------------------|
-----------------------------|------------------------------|
-----7-7-7-----8-8-8--5-5-5--|-----7-7-7--3-3-3--7-7-7--5-5-|
--0---------0----------------|--0---------------------------|



-------------------------------------|-----------------------------|
-------------------------------------|-----------------------------|
--5--3-3-3--2-2-2--0-0-0-------------|-----7-7-7-----8-8-8--5-5-5--|
--------------------------3-3-3--1-1-|--0---------0----------------|



------------------------------------|-----------------------------|
------------------------------------|-----------------------------|
-----7-7-7--3-3-3--7-7-7--5-5-5--5--|-----7-7-7-----8-8-8--5-5-5--|
--0---------------------------------|--0---------0----------------|



------------------------------------|-----------------------------|
------------------------------------|-----------------------------|
-----7-7-7--3-3-3--7-7-7--5-5-5--5--|-----7-7-7-----8-8-8--5-5-5--|
--0---------------------------------|--0---------0----------------|



------------------------------------|-----------------------------|
------------------------------------|-----------------------------|
-----7-7-7--3-3-3--7-7-7--5-5-5--5--|-----7-7-7-----8-8-8--5-5-5--|
--0---------------------------------|--0---------0----------------|



------------------------------------|-----------------------------|
------------------------------------|-----------------------------|
-----7-7-7--3-3-3--7-7-7--5-5-5--5--|-----7-7-7-----8-8-8--5-5-5--|
--0---------------------------------|--0---------0----------------|



------------------------------------|-----------------------------|
------------------------------------|-----------------------------|
-----7-7-7--3-3-3--7-7-7--5-5-5--5--|-----7-7-7-----8-8-8--5-5-5--|
--0---------------------------------|--0---------0----------------|



------------------------------------|-----------------------------|
------------------------------------|-----------------------------|
-----7-7-7--3-3-3--7-7-7--5-5-5--5--|-----7-7-7-----8-8-8--5-5-5--|
--0---------------------------------|--0---------0----------------|



------------------------------------|-----------------------------|
------------------------------------|-----------------------------|
-----7-7-7--3-3-3--7-7-7--5-5-5--5--|-----7-7-7-----8-8-8--5-5-5--|
--0---------------------------------|--0---------0----------------|



------------------------------------|-----------------------------|
------------------------------------|-----------------------------|
-----7-7-7--3-3-3--7-7-7--5-5-5--5--|-----7-7-7-----8-8-8--5-5-5--|
--0---------------------------------|--0---------0----------------|



------------------------------------|-----------------------------|
------------------------------------|-----------------------------|
-----7-7-7--3-3-3--7-7-7--5-5-5--5--|-----7-7-7-----8-8-8--5-5-5--|
--0---------------------------------|--0---------0----------------|



------------------------------------||
------------------------------------||
-----7-7-7--3-3-3--7-7-7--5-5-5--5--||
--0---------------------------------||

OptimusPrime

Toegevoegd door OptimusPrime op do 14 aug, 2003 4:36 pm

Auteur: ?
Componist: ?
Uitgever: ?
Taal: Engels

Reacties

CommonCrawl [Bot]

Volg Muzikum