Deep Purple

Deep Purple
Mistreated Ver 2 (Guitar tab)

#

from - Adam Zelma�ski

Mistreated
Deep Purple-Burn

Gtr I (E A D G B E) - 'Ritchie Blackmore'

Q=58
4/4
Gtr I
PM--| ~~~~~~~ PM ~~~~~~~ PM ~~~~~~~~~~~~~
H Q E S S S S E. +Q a S E. +Q a S E. +Q Q
|-----------------||-------------|-------------------------------|
|-----------------||-------------|-------------------------------|
|-----------------||-2-----------|-----------------------4b6r====|
|---------------4-||---4--(4)----|-2-4--(4)----2-4--(4)----------|
|-------------4---||-------------|-------------------------------|
|-----------2-----||-----------2-|-----------2-------------------|


~~~~~~~ PM ~~~~~~~ PM ~~~~~~~
S E. +Q a S E. +Q a S E. +Q Q
|-----------------------------|----------------|
|-----------------------------|----------------|
|-2b2.5-----------------------|-----------2b4--|
|-------4--(4)----2-4--(4)----|-2-4--(4)-------|
|-----------------------------|----------------|
|---------------2-----------2-|----------------|


~~~~~~~ PM ~~~~~~~ PM ~~~~~~~ PM
S E. +Q a S E. +Q a S E. +E S S
|-------------------------|--------------|
|-------------------------|--------------|
|-2-----------------------|--------------|
|---4--(4)----2-4--(4)----|-2-4--(4)-x---|
|-------------------------|------------4-|
|-----------2-----------2-|--------------|


PM|
S S T T T T E
|---------------------|
|---------------------|
|---2-4h5p4p2-4b6r====|
|-4-------------------|
|---------------------|
|---------------------|


~~~~~~~ PM ~~~~~~~ PM ~~~~~~~
S E. +Q a S E. +Q a S E. +Q Q
|-----------------------------|-------------------|
|-----------------------------|-------------------|
|-2b2.5-----------------------|-----------4b6r====|
|-------4--(4)----2-4--(4)----|-2-4--(4)----------|
|-----------------------------|-------------------|
|---------------2-----------2-|-------------------|


~~~
H Q Q H
|------------------|---------||
|------------------|---------||
|-4b6----4b6--4b6--|-4b6r====||
|------------------|---------||
|------------------|---------||
|------------------|---------||


Rhythm Guitar

Q Q Q Q Q Q Q Q Q Q Q Q

F#m E/G# D/A Hm F#m E/G#
E||---2----2----2----2----|--2----2----2----2----|--2----2----2----2----|
B||---2----2----5----5----|--3----3----3----3----|--2----2----5----5----|
G||*--2----2----4----4----|--2----2----4----4----|--2----2----4----4----|
D||*--4----4----2----2----|--4----4----4----4----|--4----4----2----2----|
A||---4----4----2----2----|--0----0----2----2----|--4----4----2----2----|
E||---2----2----4----4----|------------2----2----|--2----2----4----4----|

Q Q Q Q Q Q Q Q Q Q Q Q

D/A Hm C# C#
--2----2----2----2----|--4----4----4----4----|--4----4----4----4-----||
--3----3----3----3----|--6----6----6----6----|--6----6----6----6-----||
--2----2----4----4----|--6----6----6----6----|--6----6----6----6----*||
--4----4----4----4----|--6----6----6----6----|--6----6----6----6----*||
--0----0----2----2----|--4----4----4----4----|--4----4----4----4-----||
------------2----2----|--4----4----4----4----|--4----4----4----4-----||








Duration Legend
---------------
W - whole; H - half; Q - quarter; E - 8th; S - 16th; T - 32nd; X - 64th; a - acciaccatura
+ - note tied to previous; . - note dotted; .. - note double dotted
Uncapitalized letters represent notes that are staccato (1/2 duration)
Irregular groupings are notated above the duration line
Duration letters will always appear directly above the note/fret number it represents the
duration for. Duration letters with no fret number below them represent rests. Multi-
bar rests are notated in the form Wxn, where n is the number of bars to rest for. Low
melody durations appear below the staff

Tablature Legend
----------------
h - hammer-on
p - pull-off
b - bend
pb - pre-bend
r - bend release (if no number after the r, then release immediately)
/\ - slide into or out of (from/to "nowhere")
s - legato slide
S - shift slide
- natural harmonic
[n] - artificial harmonic
n(n) - tapped harmonic
~ - vibrato
tr - trill
T - tap
TP - trem. picking
PM - palm muting
\n/ - tremolo bar dip; n = amount to dip
\n - tremolo bar down
n/ - tremolo bar up
/n\ - tremolo bar inverted dip
= - hold bend; also acts as connecting device for hammers/pulls
- volume swell (louder/softer)
x - on rhythm slash represents muted slash
o - on rhythm slash represents single note slash

Misc Legend
-----------
| - bar
|| - double bar
||o - repeat start
o|| - repeat end
*| - double bar (ending)
: - bar (freetime)
$ - Segno
& - Coda
Tempo markers - = BPM(8/16=s8/s16), where s8 = swing 8ths, s16 = swing 16ths

OptimusPrime

Toegevoegd door OptimusPrime op do 14 aug, 2003 4:36 pm

Auteur: ?
Componist: ?
Uitgever: ?
Taal: Engels

Reacties

CommonCrawl [Bot]

Volg Muzikum