Deep Purple

Deep Purple
Maybe Im A Leo (Bass tab)

Deep Purple
Maybe I'm a Leo
(Blackmore/Gillan/Glover/Lord/Paice)


q q e e s s e e e e q
G-------------r--r--|------r--------------------1-----|-----
D---2:--------e--e--|--4:--e--3--3--1-----1--3-----3--|-----
A---4:--------s--s--|--4:--s-----------3--------------|-----
E-------------t--t--|------t--------------------------|-----


e s s e e e e q e s s e e e e q
G---------------------3--1--|--------------------------|----
D---3--3--1-----1--3--------|--------------------1-----|----
A------------3--------------|--3--3--1-----1--3-----3--|----
E---------------------------|-----------3--------------|----


e s s e q q e e s s e e e e q
G---------------------|-----r--------------------1-----|----
D---------------1--2--|-----e--3--3--1-----1--3-----3--|----
A---3--3--1-----------|-----s-----------3--------------|----
E------------3--------|-----t--------------------------|----


e s s e e e e q e s s e e e e q
G---------------------3--1--|--------------------------|----
D---3--3--1-----1--3--------|--------------------1-----|----
A------------3--------------|--3--3--1-----1--3-----3--|----
E---------------------------|-----------3--------------|----


e s s e q q e e e e e e e e
G---------------------|--------------------------|----------
D---------------1--2--|--------------------------|----------
A---3--3--1-----------|--3--3--3--3--3--3--3--3--|----------
E------------3--------|--------------------------|----------


e e e e e e e e
G---------------------------|-------------------------------
D---------------------------|-------------------------------
A---3--3--3--3--3--3--3--3--|-------------------------------
E---------------------------|-------------------------------


e t S s s e e e e q
G---r-----------------------------|-------------------------
D---e--3--5--3--1-----1--3--------|-------------------------
A---s--------------3--------1--3--|-------------------------
E---t-----------------------------|-------------------------


t S s s e q q e e e e e e e e
G------------------------|--------------------------|-------
D---3--5--3--1-----1-----|--------------------------|-------
A---------------3-----1--|--------------------------|-------
E------------------------|--1--1--1--1--1--1--1--1--|-------


e e e e e e e e
G---------------------------|-------------------------------
D---------------------------|-------------------------------
A---------------------------|-------------------------------
E---1--1--1--1--1--1--1--1--|-------------------------------


e t S s s e e e e q
G---r-----------------------------|-------------------------
D---e--3--5--3--1-----1--3--------|-------------------------
A---s--------------3--------1--3--|-------------------------
E---t-----------------------------|-------------------------


t S s s e q q e e e e e e e e
G------------------------|--------------------------|-------
D---3--5--3--1-----1-----|--------------------------|-------
A---------------3-----1--|--------------------------|-------
E------------------------|--3--3--3--3--3--3--3--3--|-------


Q Q q w q q
G------------|-----|------r--r--|---------------------------
D---3--1--0--|-----|--2:--e--e--|---------------------------
A------------|--3--|--4:--s--s--|---------------------------
E------------|-----|------t--t--|---------------------------


e e s s e e e e q
G----------r--------------------1-----|---------------------
D---4:-----e--3--3--1-----1--3-----3--|---------------------
A---4:-----s-----------3--------------|---------------------
E----------t--------------------------|---------------------


e s s e e e e q e s s e e e e q
G---------------------3--1--|--------------------------|----
D---3--3--1-----1--3--------|--------------------1-----|----
A------------3--------------|--3--3--1-----1--3-----3--|----
E---------------------------|-----------3--------------|----


e s s e q q e e s s e e e e q
G---------------------|-----r--------------------1-----|----
D---------------1--2--|-----e--3--3--1-----1--3-----3--|----
A---3--3--1-----------|-----s-----------3--------------|----
E------------3--------|-----t--------------------------|----


e s s e e e e q e s s e e e e q
G---------------------3--1--|--------------------------|----
D---3--3--1-----1--3--------|--------------------1-----|----
A------------3--------------|--3--3--1-----1--3-----3--|----
E---------------------------|-----------3--------------|----


e s s e q q e e e e e e e e
G---------------------|--------------------------|----------
D---------------1-----|--------------------------|----------
A---3--3--1--------1--|--3--3--3--3--3--3--3--3--|----------
E------------3--------|--------------------------|----------


e e e e e e e e
G---------------------------|-------------------------------
D---------------------------|-------------------------------
A---3--3--3--3--3--3--3--3--|-------------------------------
E---------------------------|-------------------------------


e t S s s e e e e q
G---r-----------------------------|-------------------------
D---e--3--5--3--1-----1--3--------|-------------------------
A---s--------------3--------1--3--|-------------------------
E---t-----------------------------|-------------------------


t S s s e q q e e e e e e e e
G------------------------|--------------------------|-------
D---3--5--3--1-----1-----|--------------------------|-------
A---------------3-----1--|--------------------------|-------
E------------------------|--1--1--1--1--1--1--1--1--|-------


e e e e e e e e
G---------------------------|-------------------------------
D---------------------------|-------------------------------
A---------------------------|-------------------------------
E---1--1--1--1--1--1--1--1--|-------------------------------


e t S s s e e e e q
G---r-----------------------------|-------------------------
D---e--3--5--3--1-----1--3--------|-------------------------
A---s--------------3--------1--3--|-------------------------
E---t-----------------------------|-------------------------


t S s s e q q e e e e e e e e
G------------------------|--------------------------|-------
D---3--5--3--1-----1-----|--------------------------|-------
A---------------3-----1--|--------------------------|-------
E------------------------|--3--3--3--3--3--3--3--3--|-------


Q Q q w q q
G------------|-----|------r--r--|---------------------------
D---3--1--0--|-----|--2:--e--e--|---------------------------
A------------|--3--|--4:--s--s--|---------------------------
E------------|-----|------t--t--|---------------------------


e e e e e e e e
G-------------------------------|---------------------------
D---4:--------------------------|---------------------------
A---4:--3--3--3--3--3--3--3-----|---------------------------
E----------------------------3--|---------------------------


e e e e e e e e e e e e e e e e
G---------------------------|--------------------------|----
D---------------------------|--------------------------|----
A---3--3--3--3--3--3--3-----|--3--3--3--3--3--3--3-----|----
E------------------------3--|-----------------------3--|----


e e e e e e e e e e e e e e e e
G---------------------------|--------------------------|----
D---------------------------|--------------------------|----
A---3--3--3--3--3--3--3-----|--------------------------|----
E------------------------3--|--1--1--1--1--1--1--1--1--|----


e e e e e e e e e e e e e e e e
G---------------------------|--------------------------|----
D---------------------------|--------------------------|----
A---------------------------|--3--3--3--3--3--3--3--1--|----
E---1--1--1--1--1--1--1--1--|--------------------------|----


e e e e e e e e
G---------------------------|-------------------------------
D---------------------------|-------------------------------
A---3--3--3--3--3--3--3--3--|-------------------------------
E---------------------------|-------------------------------


e e e e e e s s e
G------------------------------|----------------------------
D---------------------------5--|----------------------------
A---------------------1--3-----|----------------------------
E---3--3--3--3--3--3-----------|----------------------------


e e e e s E e e e e e e e e e e
G---------------------------|--------------------------|----
D---3--3--3--3--3-----------|--------------------------|----
A------------------0--1--2--|--3--3--3--3--3--3--3--3--|----
E---------------------------|--------------------------|----


e e e e e e e e e e e e e e e
G---------------------------|-----------------------|-------
D---------------------------|-----------------------|-------
A---3--------------0--1--2--|--3--3--3--3--3--3-----|-------
E------1--2--3--4-----------|--------------------3--|-------


e e e e e e e e e e e e e e e e
G---------------------------|--------------------------|----
D---------------------------|--------------------------|----
A---3--3--3--3--3--3--3-----|--3--3--3--3--3--3--3-----|----
E------------------------3--|-----------------------3--|----


e e e e e e e e e e e e e e e e
G---------------------------|--------------------------|----
D---------------------------|--------------------------|----
A---3--3--3--3--3--3--3-----|--------------------------|----
E------------------------3--|--1--1--1--1--1--1--1--1--|----


e e e e s E e e e e e e e e e e
G---------------------------|--------------------------|----
D---------------------------|--------------------------|----
A------------------0--1--2--|--3--3--3--3--3--3--3--3--|----
E---1--1--1--1--1-----------|--------------------------|----


e e e e e e e e e e e e e e e e
G---------------------------|--------------------------|----
D------------------1--3--4--|--5--5--5--5--5--5--5--5--|----
A---3--3--3--3--3-----------|--------------------------|----
E---------------------------|--------------------------|----


e e e e s E e e
G---------------------------|-------------------------------
D---3--3--3--3--3-----------|-------------------------------
A------------------0--1--2--|-------------------------------
E---------------------------|-------------------------------


e e e e e e s s e
G--------------------------3--|-----------------------------
D---------------------3h5-----|-----------------------------
A---3--3--3--3--3--3----------|-----------------------------
E-----------------------------|-----------------------------


e e e e e e e e
G---5--3--4--5--6--7--8--9--|-------------------------------
D---------------------------|-------------------------------
A---------------------------|-------------------------------
E---------------------------|-------------------------------


e e s s e e e e q
G------r--------------------1-----|-------------------------
D------e--3--3--1-----1--3-----3--|-------------------------
A------s-----------3--------------|-------------------------
E------t--------------------------|-------------------------


e s s e e e e q e s s e e e e q
G---------------------3--1--|--------------------------|----
D---3--3--1-----1--3--------|--------------------1-----|----
A------------3--------------|--3--3--1-----1--3-----3--|----
E---------------------------|-----------3--------------|----


e s s e q q e e s s e e e e q
G---------------------|-----r--------------------1-----|----
D---------------1--2--|-----e--3--3--1-----1--3-----3--|----
A---3--3--1-----------|-----s-----------3--------------|----
E------------3--------|-----t--------------------------|----


e s s e e e e q e s s e e e e q
G---------------------3--1--|--------------------------|----
D---3--3--1-----1--3--------|--------------------1-----|----
A------------3--------------|--3--3--1-----1--3-----3--|----
E---------------------------|-----------3--------------|----


e s s e q q e e e e e e e e
G---------------------|--------------------------|----------
D---------------1--2--|--------------------------|----------
A---3--3--1-----------|--3--3--3--3--3--3--3--3--|----------
E------------3--------|--------------------------|----------


e e e e e e e e
G---------------------------|-------------------------------
D---------------------------|-------------------------------
A---3--3--3--3--3--3--3--3--|-------------------------------
E---------------------------|-------------------------------


e t S s s e e e e q
G---r-----------------------------|-------------------------
D---e--3--5--3--1-----1--3--------|-------------------------
A---s--------------3--------1--3--|-------------------------
E---t-----------------------------|-------------------------


t S s s e q q e e e e e e e e
G------------------------|--------------------------|-------
D---3--5--3--1-----1-----|--------------------------|-------
A---------------3-----1--|--------------------------|-------
E------------------------|--1--1--1--1--1--1--1--1--|-------


e e e e e e e e
G---------------------------|-------------------------------
D---------------------------|-------------------------------
A---------------------------|-------------------------------
E---1--1--1--1--1--1--1--1--|-------------------------------


e t S s s e e e e q
G---r-----------------------------|-------------------------
D---e--3--5--3--1-----1--3--------|-------------------------
A---s--------------3--------1--3--|-------------------------
E---t-----------------------------|-------------------------


t S s s e q q e e e e e e e e
G------------------------|--------------------------|-------
D---3--5--3--1-----1-----|--------------------------|-------
A---------------3-----1--|--------------------------|-------
E------------------------|--3--3--3--3--3--3--3--3--|-------


Q Q q w q q
G------------|-----|------r--r--|---------------------------
D---3--1--0--|-----|--2:--e--e--|---------------------------
A------------|--3--|--4:--s--s--|---------------------------
E------------|-----|------t--t--|---------------------------


e e s s e e e e q
G----------r--------------------1-----|---------------------
D---4:-----e--3--3--1-----1--3-----3--|---------------------
A---4:-----s-----------3--------------|---------------------
E----------t--------------------------|---------------------


e s s e e e e q e s s e e e e q
G---------------------3--1--|--------------------------|----
D---3--3--1-----1--3--------|--------------------1-----|----
A------------3--------------|--3--3--1-----1--3-----3--|----
E---------------------------|-----------3--------------|----


e s s e q q e e s s e e e e q
G---------------------|-----r--------------------1-----|----
D---------------1--2--|-----e--3--3--1-----1--3-----3--|----
A---3--3--1-----------|-----s-----------3--------------|----
E------------3--------|-----t--------------------------|----


e s s e e e e q e s s e e e e q
G---------------------3--1--|--------------------------|----
D---3--3--1-----1--3--------|--------------------1-----|----
A------------3--------------|--3--3--1-----1--3-----3--|----
E---------------------------|-----------3--------------|----


e s s e q q e e s s e e e e q
G---------------------|-----r--------------------1-----|----
D---------------1--2--|-----e--3--3--1-----1--3-----3--|----
A---3--3--1-----------|-----s-----------3--------------|----
E------------3--------|-----t--------------------------|----


e s s e e e e q e s s e e e e q
G---------------------3--1--|--------------------------|----
D---3--3--1-----1--3--------|--------------------1-----|----
A------------3--------------|--3--3--1-----1--3-----3--|----
E---------------------------|-----------3--------------|----


e s s e q q e e s s e e e e q
G---------------------|-----r--------------------1-----|----
D---------------1--2--|-----e--3--3--1-----1--3-----3--|----
A---3--3--1-----------|-----s-----------3--------------|----
E------------3--------|-----t--------------------------|----


e s s e e e e q e s s e e e e q
G---------------------3--1--|--------------------------|----
D---3--3--1-----1--3--------|--------------------1-----|----
A------------3--------------|--3--3--1-----1--3-----3--|----
E---------------------------|-----------3--------------|----


e s s e q q e e s s e e e e q
G---------------------|-----r--------------------1-----|----
D---------------1--2--|-----e--3--3--1-----1--3-----3--|----
A---3--3--1-----------|-----s-----------3--------------|----
E------------3--------|-----t--------------------------|----


e s s e e e e q e s s e e e e q
G---------------------3--1--|--------------------------|----
D---3--3--1-----1--3--------|--------------------1-----|----
A------------3--------------|--3--3--1-----1--3-----3--|----
E---------------------------|-----------3--------------|----


e s s e q q
G---------------------||------------------------------------
D---------------1--2--||------------------------------------
A---3--3--1-----------||------------------------------------
E------------3--------||------------------------------------


============================================================
== TABLATURE EXPLANATION ==
============================================================

---------- ---------- ----t---
----5h8--- Hammeron ----(8)--- Ghost ----6--- Tap
---------- ---------- Note --------
----5p8--- Pulloff ---------- --------

---------- ---------- -----p--
----5/8--- Slide Up -----x---- Dead -----7-- Pop
---------- ---------- Note --s-----
----5\8--- Slide Down ---------- --5----- Slap

---------- ||------|| Repeat --------
----5~~~-- Vibrato ||*----*|| ---5^--- Bend
---------- ||*----*|| --------
---------- ||------|| --------

---------- ---------- --------
-4:------- Time ---------- --------
-4:------- Signature ---------- --------
---------- ---------- --------

Rhythm:
w = whole note W = dotted whole
h = half note H = dotted half
q = quarter note Q = dotted quarter
e = eighth note E = dotted eighth
s = sixteenth note S = dotted sixteenth
t = 32nd note T = dotted 32nd
x = 64th note X = dotted 64th
^ = triplet

============================================================
== Created with BUCKET O' TAB for Windows ==
== For more info email gse@his.com ==
============================================================

OptimusPrime

Toegevoegd door OptimusPrime op do 14 aug, 2003 4:36 pm

Auteur: Ian Gillan, Ian Paice, Jon Lord, Ritchie Blackmore, Roger Glover
Componist: ?
Uitgever: Eagle Rock Entertainment Ltd.
Uitgegeven in: 1972
Taal: Engels

Reacties

CommonCrawl [Bot]

Volg Muzikum