Deep Purple

Deep Purple
Maybe I'm A Leo (Guitar tab)

PROPS GO TO: Florian

Hello!
This is the tab to Deep Purple's "Maybe I'm a Leo".
Intro:
Play 2 times. 1st time play 1st and 2nd time play 2nd.
E----------------------------------------------------------------------------------------
B----------------------------------------------------------------------------------------
G------------------1--------------------------3---1--------------------------------------
D-3----3-1----1--3----3----3----3-1----1--3-----------------------------1----------------
A----------3------------------------3------------------3----3-1----1--3---3----3----3-1--
E---------------------------------------------------------------3-----------------------3
1st 2nd
-----| -------|
-----| -------|
-----| ----3/5|
-1--2| -1--3/5|
-----| ----1/3|
-----| -------|
Verse:
C5,Dis5
and this Lick:
E------------------------------------|
B------------------------------------|
G-0--------------------0-------------|
D----3-1----1--3---------3-1---1----3|
A--------3-------1--3--------3------3|
E---------------------------------6\1|

F5 and this Lick 2:
E--------|
B--------|
G--------|
D----1--3|
A-3------|
E--------|

F5 and Lick 2 again, then
F5,F5,Dis5,D5,C5

Then there's again the Intro and the 2nd Verse is the same as the first.

Well, that it is. I hope you enjoy it and have fun!!!

OptimusPrime

Toegevoegd door OptimusPrime op do 14 aug, 2003 4:36 pm

Auteur: Ian Gillan, Ian Paice, Jon Lord, Ritchie Blackmore, Roger Glover
Componist: ?
Uitgever: Eagle Rock Entertainment Ltd.
Uitgegeven in: 1972
Taal: Engels

Reacties

CommonCrawl [Bot]

Volg Muzikum